ISO-10303-21;
HEADER;
FILE_DESCRIPTION (( 'STEP AP214' ),
    '1' );
FILE_NAME ('CUT-153-02-03.step',
    '2019-06-05T11:20:13',
    ( '' ),
    ( '' ),
    'SwSTEP 2.0',
    'SolidWorks 2018',
    '' );
FILE_SCHEMA (( 'AUTOMOTIVE_DESIGN' ));
ENDSEC;

DATA;
#1 = DIRECTION ( 'NONE',  ( 1.000000000000000000, 0.0000000000000000000, 0.0000000000000000000 ) ) ;
#2 = EDGE_LOOP ( 'NONE', ( #29, #162, #181, #126, #69, #236 ) ) ;
#3 = EDGE_CURVE ( 'NONE', #41, #56, #156, .T. ) ;
#4 = LINE ( 'NONE', #364, #173 ) ;
#5 = DIRECTION ( 'NONE',  ( 1.224646799147353207E-16, -1.000000000000000000, 0.0000000000000000000 ) ) ;
#6 =( GEOMETRIC_REPRESENTATION_CONTEXT ( 3 ) GLOBAL_UNCERTAINTY_ASSIGNED_CONTEXT ( ( #305 ) ) GLOBAL_UNIT_ASSIGNED_CONTEXT ( ( #209, #246, #237 ) ) REPRESENTATION_CONTEXT ( 'NONE', 'WORKASPACE' ) );
#7 = EDGE_LOOP ( 'NONE', ( #226, #60, #117, #218 ) ) ;
#8 = CARTESIAN_POINT ( 'NONE',  ( 125.0000000000000000, 25.00000000000000000, -16.00000000000000000 ) ) ;
#9 = LINE ( 'NONE', #376, #275 ) ;
#10 = ADVANCED_FACE ( 'NONE', ( #380 ), #369, .T. ) ;
#11 = CARTESIAN_POINT ( 'NONE',  ( 3.469446951953614189E-15, -1.613292832658430598E-13, -1.387778780781445676E-14 ) ) ;
#12 = VERTEX_POINT ( 'NONE', #122 ) ;
#13 = EDGE_CURVE ( 'NONE', #64, #356, #256, .T. ) ;
#14 = VERTEX_POINT ( 'NONE', #284 ) ;
#15 =( LENGTH_UNIT ( ) NAMED_UNIT ( * ) SI_UNIT ( .MILLI., .METRE. ) );
#16 = EDGE_CURVE ( 'NONE', #356, #25, #84, .T. ) ;
#17 = CARTESIAN_POINT ( 'NONE',  ( 3.000000000000002665, 0.2199113894877525177, -1.564750842369094785 ) ) ;
#18 = VECTOR ( 'NONE', #401, 1000.000000000000000 ) ;
#19 = DIRECTION ( 'NONE',  ( 0.0000000000000000000, 0.0000000000000000000, -1.000000000000000000 ) ) ;
#20 = VECTOR ( 'NONE', #40, 1000.000000000000000 ) ;
#21 = EDGE_CURVE ( 'NONE', #247, #313, #47, .T. ) ;
#22 = DIRECTION ( 'NONE',  ( 0.7071067811865463515, -0.7071067811865487940, 0.0000000000000000000 ) ) ;
#23 = CARTESIAN_POINT ( 'NONE',  ( 8.471437808178909921E-16, 16.00000000000000000, -16.00000000000000000 ) ) ;
#24 = CARTESIAN_POINT ( 'NONE',  ( 125.0000000000000000, 16.00000000000000000, -16.00000000000000000 ) ) ;
#25 = VERTEX_POINT ( 'NONE', #375 ) ;
#26 = ORIENTED_EDGE ( 'NONE', *, *, #177, .T. ) ;
#27 = CARTESIAN_POINT ( 'NONE',  ( 8.471437808178909921E-16, 16.00000000000000000, 0.0000000000000000000 ) ) ;
#28 = CARTESIAN_POINT ( 'NONE',  ( 3.469446951953614189E-15, 7.499999999999902300, -2.999999999999954259 ) ) ;
#29 = ORIENTED_EDGE ( 'NONE', *, *, #3, .T. ) ;
#30 = ORIENTED_EDGE ( 'NONE', *, *, #127, .F. ) ;
#31 = ADVANCED_FACE ( 'NONE', ( #98 ), #242, .T. ) ;
#32 = DIRECTION ( 'NONE',  ( -1.000000000000000000, -1.161518853562087414E-16, 0.0000000000000000000 ) ) ;
#33 = EDGE_CURVE ( 'NONE', #155, #25, #206, .T. ) ;
#34 = EDGE_CURVE ( 'NONE', #14, #268, #296, .T. ) ;
#35 = ORIENTED_EDGE ( 'NONE', *, *, #264, .T. ) ;
#36 = DIRECTION ( 'NONE',  ( 1.000000000000000000, 0.0000000000000000000, 0.0000000000000000000 ) ) ;
#37 = CARTESIAN_POINT ( 'NONE',  ( 2.449293598294706513E-15, 5.000000000000000000, 0.0000000000000000000 ) ) ;
#38 = VECTOR ( 'NONE', #314, 1000.000000000000000 ) ;
#39 = DIRECTION ( 'NONE',  ( -1.000000000000000000, -1.161518853562087414E-16, 0.0000000000000000000 ) ) ;
#40 = DIRECTION ( 'NONE',  ( 1.000000000000000000, 0.0000000000000000000, 0.0000000000000000000 ) ) ;
#41 = VERTEX_POINT ( 'NONE', #347 ) ;
#42 = DIRECTION ( 'NONE',  ( 1.161518853562087414E-16, -1.000000000000000000, -2.721450164542462693E-15 ) ) ;
#43 = EDGE_CURVE ( 'NONE', #247, #12, #333, .T. ) ;
#44 = AXIS2_PLACEMENT_3D ( 'NONE', #145, #307, #272 ) ;
#45 = DIRECTION ( 'NONE',  ( 0.0000000000000000000, 0.0000000000000000000, 1.000000000000000000 ) ) ;
#46 = DIRECTION ( 'NONE',  ( 9.514605433755934095E-17, -0.8191520442889946851, 0.5735764363510417185 ) ) ;
#47 = LINE ( 'NONE', #17, #338 ) ;
#48 =( NAMED_UNIT ( * ) PLANE_ANGLE_UNIT ( ) SI_UNIT ( $, .RADIAN. ) );
#49 = LINE ( 'NONE', #331, #160 ) ;
#50 =( NAMED_UNIT ( * ) SI_UNIT ( $, .STERADIAN. ) SOLID_ANGLE_UNIT ( ) );
#51 = ORIENTED_EDGE ( 'NONE', *, *, #363, .T. ) ;
#52 = DIRECTION ( 'NONE',  ( -0.0000000000000000000, -0.0000000000000000000, 1.000000000000000000 ) ) ;
#53 =( GEOMETRIC_REPRESENTATION_CONTEXT ( 3 ) GLOBAL_UNCERTAINTY_ASSIGNED_CONTEXT ( ( #271 ) ) GLOBAL_UNIT_ASSIGNED_CONTEXT ( ( #15, #135, #50 ) ) REPRESENTATION_CONTEXT ( 'NONE', 'WORKASPACE' ) );
#54 = PLANE ( 'NONE',  #244 ) ;
#55 = PRODUCT_DEFINITION_CONTEXT ( 'detailed design', #387, 'design' ) ;
#56 = VERTEX_POINT ( 'NONE', #203 ) ;
#57 = ORIENTED_EDGE ( 'NONE', *, *, #308, .T. ) ;
#58 =( GEOMETRIC_REPRESENTATION_CONTEXT ( 3 ) GLOBAL_UNCERTAINTY_ASSIGNED_CONTEXT ( ( #97 ) ) GLOBAL_UNIT_ASSIGNED_CONTEXT ( ( #180, #48, #373 ) ) REPRESENTATION_CONTEXT ( 'NONE', 'WORKASPACE' ) );
#59 = CARTESIAN_POINT ( 'NONE',  ( 19.67157287525381193, 3.828427124746186294, -16.00000000000000000 ) ) ;
#60 = ORIENTED_EDGE ( 'NONE', *, *, #187, .F. ) ;
#61 = AXIS2_PLACEMENT_3D ( 'NONE', #359, #353, #70 ) ;
#62 = DIRECTION ( 'NONE',  ( 1.000000000000000000, 1.161518853562087414E-16, 0.0000000000000000000 ) ) ;
#63 = EDGE_CURVE ( 'NONE', #356, #201, #9, .T. ) ;
#64 = VERTEX_POINT ( 'NONE', #228 ) ;
#65 = CARTESIAN_POINT ( 'NONE',  ( 19.67157287525381193, 3.828427124746186294, -16.00000000000000000 ) ) ;
#66 = LINE ( 'NONE', #24, #38 ) ;
#67 = DIRECTION ( 'NONE',  ( 1.616521806738838867E-17, -0.1391731009601240021, 0.9902680687415620353 ) ) ;
#68 = VECTOR ( 'NONE', #39, 1000.000000000000000 ) ;
#69 = ORIENTED_EDGE ( 'NONE', *, *, #132, .F. ) ;
#70 = DIRECTION ( 'NONE',  ( 1.000000000000000000, 0.0000000000000000000, 0.0000000000000000000 ) ) ;
#71 = ORIENTED_EDGE ( 'NONE', *, *, #34, .F. ) ;
#72 = CARTESIAN_POINT ( 'NONE',  ( 3.469446951953614189E-15, 8.445896366636842956, 5.551115123125782702E-14 ) ) ;
#73 = ADVANCED_FACE ( 'NONE', ( #357 ), #154, .T. ) ;
#74 = FACE_OUTER_BOUND ( 'NONE', #335, .T. ) ;
#75 = ORIENTED_EDGE ( 'NONE', *, *, #33, .F. ) ;
#76 = DIRECTION ( 'NONE',  ( 0.0000000000000000000, -0.0000000000000000000, -1.000000000000000000 ) ) ;
#77 = APPLICATION_PROTOCOL_DEFINITION ( 'draft international standard', 'automotive_design', 1998, #101 ) ;
#78 = EDGE_CURVE ( 'NONE', #313, #194, #49, .T. ) ;
#79 = LINE ( 'NONE', #207, #107 ) ;
#80 = FACE_OUTER_BOUND ( 'NONE', #2, .T. ) ;
#81 = DIRECTION ( 'NONE',  ( 6.662198447806896522E-17, -0.5735764363510418296, -0.8191520442889947962 ) ) ;
#82 = ORIENTED_EDGE ( 'NONE', *, *, #63, .T. ) ;
#83 = ORIENTED_EDGE ( 'NONE', *, *, #33, .T. ) ;
#84 = LINE ( 'NONE', #8, #273 ) ;
#85 = PLANE ( 'NONE',  #111 ) ;
#86 = ADVANCED_FACE ( 'NONE', ( #337 ), #171, .T. ) ;
#87 = COLOUR_RGB ( '',0.9372549019607843146, 0.9607843137254902244, 1.000000000000000000 ) ;
#88 = MANIFOLD_SOLID_BREP ( 'Aufsatz-Linear austragen1', #312 ) ;
#89 = DIRECTION ( 'NONE',  ( 0.0000000000000000000, -0.0000000000000000000, -1.000000000000000000 ) ) ;
#90 = LINE ( 'NONE', #224, #92 ) ;
#91 = CARTESIAN_POINT ( 'NONE',  ( 3.469446951953614189E-15, 0.2199113894877525177, -1.564750842369094785 ) ) ;
#92 = VECTOR ( 'NONE', #281, 1000.000000000000114 ) ;
#93 = DIRECTION ( 'NONE',  ( 1.000000000000000000, 0.0000000000000000000, 0.0000000000000000000 ) ) ;
#94 = CARTESIAN_POINT ( 'NONE',  ( 3.000000000000003109, 5.000000000000021316, 2.560824265498195647E-14 ) ) ;
#95 = CARTESIAN_POINT ( 'NONE',  ( 23.49999999999998579, 0.0000000000000000000, -16.00000000000000000 ) ) ;
#96 = FACE_OUTER_BOUND ( 'NONE', #322, .T. ) ;
#97 = UNCERTAINTY_MEASURE_WITH_UNIT (LENGTH_MEASURE( 1.000000000000000082E-05 ), #180, 'distance_accuracy_value', 'NONE');
#98 = FACE_OUTER_BOUND ( 'NONE', #280, .T. ) ;
#99 = CARTESIAN_POINT ( 'NONE',  ( 2.999999999999999556, 5.000000000000021316, -5.999999999999965361 ) ) ;
#100 = EDGE_CURVE ( 'NONE', #25, #240, #66, .T. ) ;
#101 = APPLICATION_CONTEXT ( 'automotive_design' ) ;
#102 = PRESENTATION_LAYER_ASSIGNMENT (  '', '', ( #124 ) ) ;
#103 = VERTEX_POINT ( 'NONE', #148 ) ;
#104 = VECTOR ( 'NONE', #212, 1000.000000000000227 ) ;
#105 = ORIENTED_EDGE ( 'NONE', *, *, #13, .F. ) ;
#106 = VECTOR ( 'NONE', #93, 1000.000000000000000 ) ;
#107 = VECTOR ( 'NONE', #157, 1000.000000000000000 ) ;
#108 = AXIS2_PLACEMENT_3D ( 'NONE', #170, #62, #134 ) ;
#109 = ORIENTED_EDGE ( 'NONE', *, *, #21, .F. ) ;
#110 = DIRECTION ( 'NONE',  ( 0.0000000000000000000, -1.000000000000000000, 0.0000000000000000000 ) ) ;
#111 = AXIS2_PLACEMENT_3D ( 'NONE', #133, #118, #89 ) ;
#112 = FACE_OUTER_BOUND ( 'NONE', #142, .T. ) ;
#113 = ADVANCED_FACE ( 'NONE', ( #165 ), #234, .F. ) ;
#114 = VERTEX_POINT ( 'NONE', #248 ) ;
#115 = CARTESIAN_POINT ( 'NONE',  ( 8.471437808178909921E-16, 16.00000000000000000, -16.00000000000000000 ) ) ;
#116 = ORIENTED_EDGE ( 'NONE', *, *, #78, .T. ) ;
#117 = ORIENTED_EDGE ( 'NONE', *, *, #63, .F. ) ;
#118 = DIRECTION ( 'NONE',  ( 0.0000000000000000000, -1.000000000000000000, 0.0000000000000000000 ) ) ;
#119 = EDGE_CURVE ( 'NONE', #56, #313, #90, .T. ) ;
#120 = LINE ( 'NONE', #349, #20 ) ;
#121 = EDGE_CURVE ( 'NONE', #114, #240, #197, .T. ) ;
#122 = CARTESIAN_POINT ( 'NONE',  ( 3.000000000000002665, -1.613292832658430598E-13, -1.387778780781445676E-14 ) ) ;
#123 = DIRECTION ( 'NONE',  ( -0.0000000000000000000, 1.000000000000000000, -0.0000000000000000000 ) ) ;
#124 = STYLED_ITEM ( 'NONE', ( #186 ), #400 ) ;
#125 = MECHANICAL_DESIGN_GEOMETRIC_PRESENTATION_REPRESENTATION (  '', ( #211 ), #53 ) ;
#126 = ORIENTED_EDGE ( 'NONE', *, *, #138, .T. ) ;
#127 = EDGE_CURVE ( 'NONE', #12, #149, #79, .T. ) ;
#128 = FILL_AREA_STYLE ('',( #303 ) ) ;
#129 = ADVANCED_FACE ( 'NONE', ( #80 ), #263, .T. ) ;
#130 = LINE ( 'NONE', #198, #319 ) ;
#131 = EDGE_LOOP ( 'NONE', ( #217, #360, #259, #82 ) ) ;
#132 = EDGE_CURVE ( 'NONE', #149, #402, #221, .T. ) ;
#133 = CARTESIAN_POINT ( 'NONE',  ( 23.49999999999998579, 0.0000000000000000000, -16.00000000000000000 ) ) ;
#134 = DIRECTION ( 'NONE',  ( 1.161518853562087414E-16, -1.000000000000000000, -2.721450164542462693E-15 ) ) ;
#135 =( NAMED_UNIT ( * ) PLANE_ANGLE_UNIT ( ) SI_UNIT ( $, .RADIAN. ) );
#136 = ORIENTED_EDGE ( 'NONE', *, *, #127, .T. ) ;
#137 = DIRECTION ( 'NONE',  ( 1.000000000000000000, 0.0000000000000000000, 0.0000000000000000000 ) ) ;
#138 = EDGE_CURVE ( 'NONE', #351, #402, #184, .T. ) ;
#139 = CARTESIAN_POINT ( 'NONE',  ( 2.449293598294706513E-15, 5.000000000000000000, -16.00000000000000000 ) ) ;
#140 = FACE_OUTER_BOUND ( 'NONE', #131, .T. ) ;
#141 = ORIENTED_EDGE ( 'NONE', *, *, #151, .F. ) ;
#142 = EDGE_LOOP ( 'NONE', ( #75, #26, #301, #341 ) ) ;
#143 = CARTESIAN_POINT ( 'NONE',  ( 8.471437808178909921E-16, 16.00000000000000000, -16.00000000000000000 ) ) ;
#144 = CYLINDRICAL_SURFACE ( 'NONE', #254, 4.000000000000000000 ) ;
#145 = CARTESIAN_POINT ( 'NONE',  ( 18.50000000000000355, 5.000000000000000000, -16.00000000000000000 ) ) ;
#146 = VECTOR ( 'NONE', #366, 1000.000000000000000 ) ;
#147 = ORIENTED_EDGE ( 'NONE', *, *, #16, .F. ) ;
#148 = CARTESIAN_POINT ( 'NONE',  ( 2.449293598294706513E-15, 5.000000000000000000, -16.00000000000000000 ) ) ;
#149 = VERTEX_POINT ( 'NONE', #94 ) ;
#150 = CARTESIAN_POINT ( 'NONE',  ( 3.000000000000002665, -1.613292832658430598E-13, -1.387778780781445676E-14 ) ) ;
#151 = EDGE_CURVE ( 'NONE', #41, #247, #382, .T. ) ;
#152 = CARTESIAN_POINT ( 'NONE',  ( 3.000000000000002665, -1.613292832658430598E-13, -1.387778780781445676E-14 ) ) ;
#153 = EDGE_LOOP ( 'NONE', ( #71, #399, #167, #386 ) ) ;
#154 = PLANE ( 'NONE',  #219 ) ;
#155 = VERTEX_POINT ( 'NONE', #23 ) ;
#156 = LINE ( 'NONE', #191, #290 ) ;
#157 = DIRECTION ( 'NONE',  ( -1.161518853562087414E-16, 1.000000000000000000, 8.677831656748562794E-15 ) ) ;
#158 = DIRECTION ( 'NONE',  ( 0.0000000000000000000, 0.0000000000000000000, 1.000000000000000000 ) ) ;
#159 = ORIENTED_EDGE ( 'NONE', *, *, #3, .F. ) ;
#160 = VECTOR ( 'NONE', #352, 1000.000000000000227 ) ;
#161 = PRODUCT ( 'CUT-153-02-03', 'CUT-153-02-03', '', ( #361 ) ) ;
#162 = ORIENTED_EDGE ( 'NONE', *, *, #289, .F. ) ;
#163 = ORIENTED_EDGE ( 'NONE', *, *, #363, .F. ) ;
#164 = CARTESIAN_POINT ( 'NONE',  ( 16.84314575050761675, 1.000000000000000000, -16.00000000000000000 ) ) ;
#165 = FACE_OUTER_BOUND ( 'NONE', #227, .T. ) ;
#166 = CARTESIAN_POINT ( 'NONE',  ( 3.000000000000002665, 0.2199113894877525177, -1.564750842369094785 ) ) ;
#167 = ORIENTED_EDGE ( 'NONE', *, *, #339, .T. ) ;
#168 = ORIENTED_EDGE ( 'NONE', *, *, #289, .T. ) ;
#169 = CARTESIAN_POINT ( 'NONE',  ( 18.50000000000000355, 5.000000000000000000, -16.00000000000000000 ) ) ;
#170 = CARTESIAN_POINT ( 'NONE',  ( 3.000000000000002665, 7.499999999999902300, -2.999999999999954259 ) ) ;
#171 = PLANE ( 'NONE',  #327 ) ;
#172 = LINE ( 'NONE', #72, #223 ) ;
#173 = VECTOR ( 'NONE', #176, 1000.000000000000000 ) ;
#174 = VECTOR ( 'NONE', #253, 1000.000000000000000 ) ;
#175 = ORIENTED_EDGE ( 'NONE', *, *, #298, .T. ) ;
#176 = DIRECTION ( 'NONE',  ( -0.0000000000000000000, 1.000000000000000000, -0.0000000000000000000 ) ) ;
#177 = EDGE_CURVE ( 'NONE', #155, #114, #262, .T. ) ;
#178 = VERTEX_POINT ( 'NONE', #65 ) ;
#179 = PRODUCT_RELATED_PRODUCT_CATEGORY ( 'part', '', ( #161 ) ) ;
#180 =( LENGTH_UNIT ( ) NAMED_UNIT ( * ) SI_UNIT ( .MILLI., .METRE. ) );
#181 = ORIENTED_EDGE ( 'NONE', *, *, #355, .T. ) ;
#182 = ORIENTED_EDGE ( 'NONE', *, *, #241, .T. ) ;
#183 = VECTOR ( 'NONE', #46, 1000.000000000000114 ) ;
#184 = LINE ( 'NONE', #249, #340 ) ;
#185 = ADVANCED_FACE ( 'NONE', ( #112 ), #299, .F. ) ;
#186 = PRESENTATION_STYLE_ASSIGNMENT (( #326 ) ) ;
#187 = EDGE_CURVE ( 'NONE', #201, #240, #4, .T. ) ;
#188 = MECHANICAL_DESIGN_GEOMETRIC_PRESENTATION_REPRESENTATION (  '', ( #124 ), #6 ) ;
#189 = FACE_OUTER_BOUND ( 'NONE', #251, .T. ) ;
#190 = ORIENTED_EDGE ( 'NONE', *, *, #43, .T. ) ;
#191 = CARTESIAN_POINT ( 'NONE',  ( 3.000000000000002220, 5.000000000000022204, -4.911804920760125981 ) ) ;
#192 = SURFACE_SIDE_STYLE ('',( #214 ) ) ;
#193 = ORIENTED_EDGE ( 'NONE', *, *, #138, .F. ) ;
#194 = VERTEX_POINT ( 'NONE', #11 ) ;
#195 = CARTESIAN_POINT ( 'NONE',  ( 3.000000000000002665, 0.2199113894877525177, -1.564750842369094785 ) ) ;
#196 = CARTESIAN_POINT ( 'NONE',  ( 125.0000000000000000, 0.0000000000000000000, 0.0000000000000000000 ) ) ;
#197 = LINE ( 'NONE', #27, #146 ) ;
#198 = CARTESIAN_POINT ( 'NONE',  ( 2.449293598294706513E-15, 5.000000000000000000, -16.00000000000000000 ) ) ;
#199 = PRODUCT_DEFINITION_FORMATION_WITH_SPECIFIED_SOURCE ( 'ANY', '', #161, .NOT_KNOWN. ) ;
#200 = DIRECTION ( 'NONE',  ( -0.0000000000000000000, 0.0000000000000000000, 1.000000000000000000 ) ) ;
#201 = VERTEX_POINT ( 'NONE', #196 ) ;
#202 = ORIENTED_EDGE ( 'NONE', *, *, #241, .F. ) ;
#203 = CARTESIAN_POINT ( 'NONE',  ( 2.914230647672874042E-15, 5.000000000000020428, -4.911804920760125093 ) ) ;
#204 = EDGE_CURVE ( 'NONE', #64, #268, #390, .T. ) ;
#205 = ORIENTED_EDGE ( 'NONE', *, *, #119, .T. ) ;
#206 = LINE ( 'NONE', #115, #106 ) ;
#207 = CARTESIAN_POINT ( 'NONE',  ( 3.000000000000002665, 8.445896366636842956, 5.551115123125782702E-14 ) ) ;
#208 = ORIENTED_EDGE ( 'NONE', *, *, #151, .T. ) ;
#209 =( LENGTH_UNIT ( ) NAMED_UNIT ( * ) SI_UNIT ( .MILLI., .METRE. ) );
#210 = ORIENTED_EDGE ( 'NONE', *, *, #355, .F. ) ;
#211 = STYLED_ITEM ( 'NONE', ( #391 ), #88 ) ;
#212 = DIRECTION ( 'NONE',  ( 1.616521806738838559E-17, -0.1391731009601240021, 0.9902680687415620353 ) ) ;
#213 = ORIENTED_EDGE ( 'NONE', *, *, #177, .F. ) ;
#214 = SURFACE_STYLE_FILL_AREA ( #372 ) ;
#215 = VECTOR ( 'NONE', #388, 1000.000000000000000 ) ;
#216 = CARTESIAN_POINT ( 'NONE',  ( 0.0000000000000000000, 25.00000000000000000, -16.00000000000000000 ) ) ;
#217 = ORIENTED_EDGE ( 'NONE', *, *, #264, .F. ) ;
#218 = ORIENTED_EDGE ( 'NONE', *, *, #16, .T. ) ;
#219 = AXIS2_PLACEMENT_3D ( 'NONE', #152, #378, #67 ) ;
#220 = PRODUCT_DEFINITION ( 'UNKNOWN', '', #199, #55 ) ;
#221 = LINE ( 'NONE', #37, #330 ) ;
#222 = DIRECTION ( 'NONE',  ( -1.161518853562087414E-16, 1.000000000000000000, 8.677831656748562794E-15 ) ) ;
#223 = VECTOR ( 'NONE', #222, 1000.000000000000000 ) ;
#224 = CARTESIAN_POINT ( 'NONE',  ( 3.469446951953614189E-15, 0.2199113894877525177, -1.564750842369094785 ) ) ;
#225 = FACE_OUTER_BOUND ( 'NONE', #343, .T. ) ;
#226 = ORIENTED_EDGE ( 'NONE', *, *, #100, .T. ) ;
#227 = EDGE_LOOP ( 'NONE', ( #325, #213, #182, #168, #205, #116 ) ) ;
#228 = CARTESIAN_POINT ( 'NONE',  ( 23.49999999999998579, 0.0000000000000000000, -16.00000000000000000 ) ) ;
#229 = AXIS2_PLACEMENT_3D ( 'NONE', #278, #200, #36 ) ;
#230 = ADVANCED_FACE ( 'NONE', ( #74 ), #283, .T. ) ;
#231 = CARTESIAN_POINT ( 'NONE',  ( 2.449293598294706513E-15, 5.000000000000000000, -16.00000000000000000 ) ) ;
#232 = LINE ( 'NONE', #99, #174 ) ;
#233 = AXIS2_PLACEMENT_3D ( 'NONE', #231, #110, #76 ) ;
#234 = PLANE ( 'NONE',  #304 ) ;
#235 = ORIENTED_EDGE ( 'NONE', *, *, #298, .F. ) ;
#236 = ORIENTED_EDGE ( 'NONE', *, *, #308, .F. ) ;
#237 =( NAMED_UNIT ( * ) SI_UNIT ( $, .STERADIAN. ) SOLID_ANGLE_UNIT ( ) );
#238 = SURFACE_STYLE_USAGE ( .BOTH. , #192 ) ;
#239 = ORIENTED_EDGE ( 'NONE', *, *, #21, .T. ) ;
#240 = VERTEX_POINT ( 'NONE', #344 ) ;
#241 = EDGE_CURVE ( 'NONE', #155, #103, #245, .T. ) ;
#242 = PLANE ( 'NONE',  #368 ) ;
#243 = ORIENTED_EDGE ( 'NONE', *, *, #286, .T. ) ;
#244 = AXIS2_PLACEMENT_3D ( 'NONE', #195, #81, #260 ) ;
#245 = LINE ( 'NONE', #216, #358 ) ;
#246 =( NAMED_UNIT ( * ) PLANE_ANGLE_UNIT ( ) SI_UNIT ( $, .RADIAN. ) );
#247 = VERTEX_POINT ( 'NONE', #354 ) ;
#248 = CARTESIAN_POINT ( 'NONE',  ( 1.102182119232617911E-15, 16.00000000000000000, 0.0000000000000000000 ) ) ;
#249 = CARTESIAN_POINT ( 'NONE',  ( 16.84314575050761675, 5.000000000000000000, 0.0000000000000000000 ) ) ;
#250 = ORIENTED_EDGE ( 'NONE', *, *, #43, .F. ) ;
#251 = EDGE_LOOP ( 'NONE', ( #159, #208, #239, #261 ) ) ;
#252 = APPLICATION_PROTOCOL_DEFINITION ( 'draft international standard', 'automotive_design', 1998, #387 ) ;
#253 = DIRECTION ( 'NONE',  ( 0.0000000000000000000, 0.0000000000000000000, 1.000000000000000000 ) ) ;
#254 = AXIS2_PLACEMENT_3D ( 'NONE', #164, #19, #389 ) ;
#255 = LINE ( 'NONE', #150, #68 ) ;
#256 = LINE ( 'NONE', #95, #385 ) ;
#257 = VECTOR ( 'NONE', #22, 999.9999999999998863 ) ;
#258 = VECTOR ( 'NONE', #45, 1000.000000000000000 ) ;
#259 = ORIENTED_EDGE ( 'NONE', *, *, #13, .T. ) ;
#260 = DIRECTION ( 'NONE',  ( 9.514605433755934095E-17, -0.8191520442889946851, 0.5735764363510417185 ) ) ;
#261 = ORIENTED_EDGE ( 'NONE', *, *, #119, .F. ) ;
#262 = LINE ( 'NONE', #292, #285 ) ;
#263 = PLANE ( 'NONE',  #233 ) ;
#264 = EDGE_CURVE ( 'NONE', #268, #201, #120, .T. ) ;
#265 = DIRECTION ( 'NONE',  ( 1.000000000000000000, 0.0000000000000000000, 0.0000000000000000000 ) ) ;
#266 = DIRECTION ( 'NONE',  ( 0.0000000000000000000, 0.0000000000000000000, 1.000000000000000000 ) ) ;
#267 = CARTESIAN_POINT ( 'NONE',  ( 125.0000000000000000, 25.00000000000000000, -16.00000000000000000 ) ) ;
#268 = VERTEX_POINT ( 'NONE', #395 ) ;
#269 = CIRCLE ( 'NONE', #229, 4.000000000000000000 ) ;
#270 = CARTESIAN_POINT ( 'NONE',  ( 16.84314575050761675, 1.000000000000000000, 0.0000000000000000000 ) ) ;
#271 = UNCERTAINTY_MEASURE_WITH_UNIT (LENGTH_MEASURE( 1.000000000000000082E-05 ), #15, 'distance_accuracy_value', 'NONE');
#272 = DIRECTION ( 'NONE',  ( 0.7071067811865463515, -0.7071067811865487940, 0.0000000000000000000 ) ) ;
#273 = VECTOR ( 'NONE', #123, 1000.000000000000000 ) ;
#274 = ADVANCED_FACE ( 'NONE', ( #225 ), #144, .F. ) ;
#275 = VECTOR ( 'NONE', #158, 1000.000000000000000 ) ;
#276 = SURFACE_STYLE_FILL_AREA ( #128 ) ;
#277 = AXIS2_PLACEMENT_3D ( 'NONE', #270, #393, #345 ) ;
#278 = CARTESIAN_POINT ( 'NONE',  ( 16.84314575050761675, 1.000000000000000000, -16.00000000000000000 ) ) ;
#279 = DIRECTION ( 'NONE',  ( 1.000000000000000000, 0.0000000000000000000, 0.0000000000000000000 ) ) ;
#280 = EDGE_LOOP ( 'NONE', ( #310, #51, #374, #35, #320, #287, #329, #394, #136 ) ) ;
#281 = DIRECTION ( 'NONE',  ( 9.514605433755934095E-17, -0.8191520442889946851, 0.5735764363510417185 ) ) ;
#282 = DIRECTION ( 'NONE',  ( 1.000000000000000000, 1.161518853562087414E-16, 0.0000000000000000000 ) ) ;
#283 = PLANE ( 'NONE',  #108 ) ;
#284 = CARTESIAN_POINT ( 'NONE',  ( 19.67157287525381193, 3.828427124746186294, 0.0000000000000000000 ) ) ;
#285 = VECTOR ( 'NONE', #52, 1000.000000000000000 ) ;
#286 = EDGE_CURVE ( 'NONE', #12, #194, #255, .T. ) ;
#287 = ORIENTED_EDGE ( 'NONE', *, *, #121, .F. ) ;
#288 = ORIENTED_EDGE ( 'NONE', *, *, #339, .F. ) ;
#289 = EDGE_CURVE ( 'NONE', #103, #56, #294, .T. ) ;
#290 = VECTOR ( 'NONE', #381, 1000.000000000000000 ) ;
#291 = SURFACE_SIDE_STYLE ('',( #276 ) ) ;
#292 = CARTESIAN_POINT ( 'NONE',  ( 8.471437808178909921E-16, 16.00000000000000000, -16.00000000000000000 ) ) ;
#293 = PRODUCT_DEFINITION_SHAPE ( 'NONE', 'NONE',  #220 ) ;
#294 = LINE ( 'NONE', #139, #258 ) ;
#295 = AXIS2_PLACEMENT_3D ( 'NONE', #317, #362, #1 ) ;
#296 = LINE ( 'NONE', #336, #257 ) ;
#297 = DIRECTION ( 'NONE',  ( -0.0000000000000000000, 0.0000000000000000000, -1.000000000000000000 ) ) ;
#298 = EDGE_CURVE ( 'NONE', #178, #351, #269, .T. ) ;
#299 = PLANE ( 'NONE',  #324 ) ;
#300 = DIRECTION ( 'NONE',  ( 0.0000000000000000000, -1.000000000000000000, 0.0000000000000000000 ) ) ;
#301 = ORIENTED_EDGE ( 'NONE', *, *, #121, .T. ) ;
#302 = CARTESIAN_POINT ( 'NONE',  ( 125.0000000000000000, 0.0000000000000000000, -16.00000000000000000 ) ) ;
#303 = FILL_AREA_STYLE_COLOUR ( '', #348 ) ;
#304 = AXIS2_PLACEMENT_3D ( 'NONE', #28, #282, #42 ) ;
#305 = UNCERTAINTY_MEASURE_WITH_UNIT (LENGTH_MEASURE( 1.000000000000000082E-05 ), #209, 'distance_accuracy_value', 'NONE');
#306 = PRESENTATION_LAYER_ASSIGNMENT (  '', '', ( #211 ) ) ;
#307 = DIRECTION ( 'NONE',  ( -0.7071067811865487940, -0.7071067811865463515, 0.0000000000000000000 ) ) ;
#308 = EDGE_CURVE ( 'NONE', #41, #149, #232, .T. ) ;
#309 = DIRECTION ( 'NONE',  ( -1.161518853562087414E-16, 1.000000000000000000, 8.677831656748562794E-15 ) ) ;
#310 = ORIENTED_EDGE ( 'NONE', *, *, #132, .T. ) ;
#311 = DIRECTION ( 'NONE',  ( 1.000000000000000000, 0.0000000000000000000, -0.0000000000000000000 ) ) ;
#312 = CLOSED_SHELL ( 'NONE', ( #113, #31, #73, #370, #230, #86, #396, #10, #129, #328, #274, #185 ) ) ;
#313 = VERTEX_POINT ( 'NONE', #91 ) ;
#314 = DIRECTION ( 'NONE',  ( -0.0000000000000000000, -0.0000000000000000000, 1.000000000000000000 ) ) ;
#315 = CARTESIAN_POINT ( 'NONE',  ( 16.84314575050761675, 5.000000000000000000, 0.0000000000000000000 ) ) ;
#316 = CIRCLE ( 'NONE', #277, 4.000000000000000000 ) ;
#317 = CARTESIAN_POINT ( 'NONE',  ( 0.0000000000000000000, 0.0000000000000000000, -16.00000000000000000 ) ) ;
#318 = FILL_AREA_STYLE_COLOUR ( '', #87 ) ;
#319 = VECTOR ( 'NONE', #265, 1000.000000000000000 ) ;
#320 = ORIENTED_EDGE ( 'NONE', *, *, #187, .T. ) ;
#321 = ORIENTED_EDGE ( 'NONE', *, *, #379, .F. ) ;
#322 = EDGE_LOOP ( 'NONE', ( #175, #210, #202, #83, #147, #105, #288 ) ) ;
#323 = DIRECTION ( 'NONE',  ( 0.0000000000000000000, -0.0000000000000000000, -1.000000000000000000 ) ) ;
#324 = AXIS2_PLACEMENT_3D ( 'NONE', #143, #300, #323 ) ;
#325 = ORIENTED_EDGE ( 'NONE', *, *, #346, .T. ) ;
#326 = SURFACE_STYLE_USAGE ( .BOTH. , #291 ) ;
#327 = AXIS2_PLACEMENT_3D ( 'NONE', #267, #311, #297 ) ;
#328 = ADVANCED_FACE ( 'NONE', ( #96 ), #350, .F. ) ;
#329 = ORIENTED_EDGE ( 'NONE', *, *, #346, .F. ) ;
#330 = VECTOR ( 'NONE', #137, 1000.000000000000000 ) ;
#331 = CARTESIAN_POINT ( 'NONE',  ( 3.469446951953614189E-15, -1.613292832658430598E-13, -1.387778780781445676E-14 ) ) ;
#332 = DIRECTION ( 'NONE',  ( 1.007946507735138592E-30, -8.677831656748562794E-15, 1.000000000000000000 ) ) ;
#333 = LINE ( 'NONE', #377, #104 ) ;
#334 = CARTESIAN_POINT ( 'NONE',  ( 3.000000000000002665, 8.445896366636842956, 5.551115123125782702E-14 ) ) ;
#335 = EDGE_LOOP ( 'NONE', ( #57, #30, #250, #141 ) ) ;
#336 = CARTESIAN_POINT ( 'NONE',  ( 18.50000000000000355, 5.000000000000000000, 0.0000000000000000000 ) ) ;
#337 = FACE_OUTER_BOUND ( 'NONE', #7, .T. ) ;
#338 = VECTOR ( 'NONE', #32, 1000.000000000000000 ) ;
#339 = EDGE_CURVE ( 'NONE', #178, #64, #384, .T. ) ;
#340 = VECTOR ( 'NONE', #266, 1000.000000000000000 ) ;
#341 = ORIENTED_EDGE ( 'NONE', *, *, #100, .F. ) ;
#342 = VECTOR ( 'NONE', #371, 999.9999999999998863 ) ;
#343 = EDGE_LOOP ( 'NONE', ( #235, #321, #163, #193 ) ) ;
#344 = CARTESIAN_POINT ( 'NONE',  ( 125.0000000000000000, 16.00000000000000000, 0.0000000000000000000 ) ) ;
#345 = DIRECTION ( 'NONE',  ( 1.000000000000000000, 2.656295322589485863E-15, 0.0000000000000000000 ) ) ;
#346 = EDGE_CURVE ( 'NONE', #194, #114, #172, .T. ) ;
#347 = CARTESIAN_POINT ( 'NONE',  ( 2.999999999999999556, 5.000000000000021316, -4.911804920760110882 ) ) ;
#348 = COLOUR_RGB ( '',0.9372549019607843146, 0.9607843137254902244, 1.000000000000000000 ) ;
#349 = CARTESIAN_POINT ( 'NONE',  ( 23.49999999999998579, 0.0000000000000000000, 0.0000000000000000000 ) ) ;
#350 = PLANE ( 'NONE',  #295 ) ;
#351 = VERTEX_POINT ( 'NONE', #398 ) ;
#352 = DIRECTION ( 'NONE',  ( 1.616521806738838559E-17, -0.1391731009601240021, 0.9902680687415620353 ) ) ;
#353 = DIRECTION ( 'NONE',  ( 0.0000000000000000000, 0.0000000000000000000, 1.000000000000000000 ) ) ;
#354 = CARTESIAN_POINT ( 'NONE',  ( 3.000000000000002665, 0.2199113894877525177, -1.564750842369094785 ) ) ;
#355 = EDGE_CURVE ( 'NONE', #103, #351, #130, .T. ) ;
#356 = VERTEX_POINT ( 'NONE', #302 ) ;
#357 = FACE_OUTER_BOUND ( 'NONE', #367, .T. ) ;
#358 = VECTOR ( 'NONE', #5, 1000.000000000000000 ) ;
#359 = CARTESIAN_POINT ( 'NONE',  ( 0.0000000000000000000, 0.0000000000000000000, 0.0000000000000000000 ) ) ;
#360 = ORIENTED_EDGE ( 'NONE', *, *, #204, .F. ) ;
#361 = PRODUCT_CONTEXT ( 'NONE', #101, 'mechanical' ) ;
#362 = DIRECTION ( 'NONE',  ( -0.0000000000000000000, 0.0000000000000000000, 1.000000000000000000 ) ) ;
#363 = EDGE_CURVE ( 'NONE', #402, #14, #316, .T. ) ;
#364 = CARTESIAN_POINT ( 'NONE',  ( 125.0000000000000000, 25.00000000000000000, 0.0000000000000000000 ) ) ;
#365 = LINE ( 'NONE', #59, #215 ) ;
#366 = DIRECTION ( 'NONE',  ( 1.000000000000000000, 0.0000000000000000000, 0.0000000000000000000 ) ) ;
#367 = EDGE_LOOP ( 'NONE', ( #392, #109, #190, #243 ) ) ;
#368 = AXIS2_PLACEMENT_3D ( 'NONE', #334, #332, #309 ) ;
#369 = PLANE ( 'NONE',  #44 ) ;
#370 = ADVANCED_FACE ( 'NONE', ( #189 ), #54, .T. ) ;
#371 = DIRECTION ( 'NONE',  ( 0.7071067811865463515, -0.7071067811865487940, 0.0000000000000000000 ) ) ;
#372 = FILL_AREA_STYLE ('',( #318 ) ) ;
#373 =( NAMED_UNIT ( * ) SI_UNIT ( $, .STERADIAN. ) SOLID_ANGLE_UNIT ( ) );
#374 = ORIENTED_EDGE ( 'NONE', *, *, #34, .T. ) ;
#375 = CARTESIAN_POINT ( 'NONE',  ( 125.0000000000000000, 16.00000000000000000, -16.00000000000000000 ) ) ;
#376 = CARTESIAN_POINT ( 'NONE',  ( 125.0000000000000000, 0.0000000000000000000, -16.00000000000000000 ) ) ;
#377 = CARTESIAN_POINT ( 'NONE',  ( 3.000000000000002665, -1.613292832658430598E-13, -1.387778780781445676E-14 ) ) ;
#378 = DIRECTION ( 'NONE',  ( 1.150215031923841474E-16, -0.9902680687415621463, -0.1391731009601240299 ) ) ;
#379 = EDGE_CURVE ( 'NONE', #14, #178, #365, .T. ) ;
#380 = FACE_OUTER_BOUND ( 'NONE', #153, .T. ) ;
#381 = DIRECTION ( 'NONE',  ( -1.000000000000000000, -1.161518853562087414E-16, 6.162975822039154730E-33 ) ) ;
#382 = LINE ( 'NONE', #166, #183 ) ;
#383 = CARTESIAN_POINT ( 'NONE',  ( 23.49999999999998579, 0.0000000000000000000, -16.00000000000000000 ) ) ;
#384 = LINE ( 'NONE', #169, #342 ) ;
#385 = VECTOR ( 'NONE', #279, 1000.000000000000000 ) ;
#386 = ORIENTED_EDGE ( 'NONE', *, *, #204, .T. ) ;
#387 = APPLICATION_CONTEXT ( 'automotive_design' ) ;
#388 = DIRECTION ( 'NONE',  ( -0.0000000000000000000, -0.0000000000000000000, -1.000000000000000000 ) ) ;
#389 = DIRECTION ( 'NONE',  ( -1.000000000000000000, 0.0000000000000000000, 0.0000000000000000000 ) ) ;
#390 = LINE ( 'NONE', #383, #18 ) ;
#391 = PRESENTATION_STYLE_ASSIGNMENT (( #238 ) ) ;
#392 = ORIENTED_EDGE ( 'NONE', *, *, #78, .F. ) ;
#393 = DIRECTION ( 'NONE',  ( 0.0000000000000000000, -0.0000000000000000000, -1.000000000000000000 ) ) ;
#394 = ORIENTED_EDGE ( 'NONE', *, *, #286, .F. ) ;
#395 = CARTESIAN_POINT ( 'NONE',  ( 23.49999999999998579, 0.0000000000000000000, 0.0000000000000000000 ) ) ;
#396 = ADVANCED_FACE ( 'NONE', ( #140 ), #85, .T. ) ;
#397 = SHAPE_DEFINITION_REPRESENTATION ( #293, #400 ) ;
#398 = CARTESIAN_POINT ( 'NONE',  ( 16.84314575050761675, 5.000000000000000000, -16.00000000000000000 ) ) ;
#399 = ORIENTED_EDGE ( 'NONE', *, *, #379, .T. ) ;
#400 = ADVANCED_BREP_SHAPE_REPRESENTATION ( 'CUT-153-02-03', ( #88, #61 ), #58 ) ;
#401 = DIRECTION ( 'NONE',  ( 0.0000000000000000000, 0.0000000000000000000, 1.000000000000000000 ) ) ;
#402 = VERTEX_POINT ( 'NONE', #315 ) ;
ENDSEC;
END-ISO-10303-21;
