ISO-10303-21;
HEADER;
FILE_DESCRIPTION (( 'STEP AP214' ),
    '1' );
FILE_NAME ('CUT-153-02-05.step',
    '2019-06-05T11:20:17',
    ( '' ),
    ( '' ),
    'SwSTEP 2.0',
    'SolidWorks 2018',
    '' );
FILE_SCHEMA (( 'AUTOMOTIVE_DESIGN' ));
ENDSEC;

DATA;
#1 = AXIS2_PLACEMENT_3D ( 'NONE', #193, #33, #291 ) ;
#2 = CARTESIAN_POINT ( 'NONE',  ( 23.49999999999998579, 0.0000000000000000000, -19.05000000000000071 ) ) ;
#3 = DIRECTION ( 'NONE',  ( -0.0000000000000000000, 0.0000000000000000000, 1.000000000000000000 ) ) ;
#4 = ORIENTED_EDGE ( 'NONE', *, *, #30, .T. ) ;
#5 = PRESENTATION_LAYER_ASSIGNMENT (  '', '', ( #15 ) ) ;
#6 = EDGE_CURVE ( 'NONE', #262, #61, #188, .T. ) ;
#7 = ORIENTED_EDGE ( 'NONE', *, *, #86, .T. ) ;
#8 = DIRECTION ( 'NONE',  ( 1.616521806738838867E-17, -0.1391731009601240021, 0.9902680687415620353 ) ) ;
#9 = LINE ( 'NONE', #391, #275 ) ;
#11 = ADVANCED_FACE ( 'NONE', ( #302 ), #334, .T. ) ;
#10 = DIRECTION ( 'NONE',  ( -0.0000000000000000000, -0.0000000000000000000, -1.000000000000000000 ) ) ;
#12 = FILL_AREA_STYLE ('',( #342 ) ) ;
#13 = LINE ( 'NONE', #27, #122 ) ;
#14 = CARTESIAN_POINT ( 'NONE',  ( 125.0000000000000000, 0.0000000000000000000, 0.0000000000000000000 ) ) ;
#15 = STYLED_ITEM ( 'NONE', ( #386 ), #131 ) ;
#16 = DIRECTION ( 'NONE',  ( 1.224646799147353207E-16, -1.000000000000000000, 0.0000000000000000000 ) ) ;
#17 = APPLICATION_PROTOCOL_DEFINITION ( 'draft international standard', 'automotive_design', 1998, #187 ) ;
#18 = EDGE_CURVE ( 'NONE', #289, #98, #114, .T. ) ;
#19 = VECTOR ( 'NONE', #325, 1000.000000000000000 ) ;
#20 = DIRECTION ( 'NONE',  ( 1.161518853562087414E-16, -1.000000000000000000, -2.721450164542462693E-15 ) ) ;
#21 = VERTEX_POINT ( 'NONE', #84 ) ;
#22 = DIRECTION ( 'NONE',  ( 1.000000000000000000, 0.0000000000000000000, 0.0000000000000000000 ) ) ;
#23 = ORIENTED_EDGE ( 'NONE', *, *, #30, .F. ) ;
#24 = PLANE ( 'NONE',  #250 ) ;
#25 = LINE ( 'NONE', #346, #134 ) ;
#26 = PLANE ( 'NONE',  #300 ) ;
#27 = CARTESIAN_POINT ( 'NONE',  ( 3.000000000000002220, 5.000000000000022204, -4.911804920760125981 ) ) ;
#28 = ORIENTED_EDGE ( 'NONE', *, *, #18, .T. ) ;
#29 = EDGE_CURVE ( 'NONE', #98, #268, #293, .T. ) ;
#30 = EDGE_CURVE ( 'NONE', #348, #61, #149, .T. ) ;
#31 = EDGE_LOOP ( 'NONE', ( #190, #118, #319, #57, #384, #199 ) ) ;
#32 = EDGE_LOOP ( 'NONE', ( #382, #328, #175, #329 ) ) ;
#33 = DIRECTION ( 'NONE',  ( 1.000000000000000000, 1.161518853562087414E-16, 0.0000000000000000000 ) ) ;
#34 = LINE ( 'NONE', #124, #254 ) ;
#35 = CARTESIAN_POINT ( 'NONE',  ( 125.0000000000000000, 25.00000000000000000, -19.05000000000000071 ) ) ;
#36 = MANIFOLD_SOLID_BREP ( 'Aufsatz-Linear austragen1', #387 ) ;
#37 = VERTEX_POINT ( 'NONE', #253 ) ;
#38 = DIRECTION ( 'NONE',  ( 9.514605433755934095E-17, -0.8191520442889946851, 0.5735764363510417185 ) ) ;
#39 = CARTESIAN_POINT ( 'NONE',  ( 125.0000000000000000, 19.05000000000000071, -19.05000000000000071 ) ) ;
#40 = UNCERTAINTY_MEASURE_WITH_UNIT (LENGTH_MEASURE( 1.000000000000000082E-05 ), #390, 'distance_accuracy_value', 'NONE');
#41 = FILL_AREA_STYLE_COLOUR ( '', #126 ) ;
#42 = DIRECTION ( 'NONE',  ( 1.000000000000000000, 0.0000000000000000000, 0.0000000000000000000 ) ) ;
#43 = ADVANCED_FACE ( 'NONE', ( #75 ), #123, .T. ) ;
#44 = PRESENTATION_LAYER_ASSIGNMENT (  '', '', ( #362 ) ) ;
#45 = PRODUCT ( 'CUT-153-02-05', 'CUT-153-02-05', '', ( #247 ) ) ;
#46 = DIRECTION ( 'NONE',  ( -1.000000000000000000, -1.161518853562087414E-16, 0.0000000000000000000 ) ) ;
#47 = DIRECTION ( 'NONE',  ( 0.7071067811865463515, -0.7071067811865487940, 0.0000000000000000000 ) ) ;
#48 = PLANE ( 'NONE',  #393 ) ;
#49 = ORIENTED_EDGE ( 'NONE', *, *, #356, .T. ) ;
#50 = DIRECTION ( 'NONE',  ( 0.0000000000000000000, -1.000000000000000000, 0.0000000000000000000 ) ) ;
#51 = VECTOR ( 'NONE', #10, 1000.000000000000000 ) ;
#52 = EDGE_LOOP ( 'NONE', ( #272, #186, #133, #340 ) ) ;
#53 = ORIENTED_EDGE ( 'NONE', *, *, #281, .T. ) ;
#54 = CARTESIAN_POINT ( 'NONE',  ( 19.67157287525381193, 3.828427124746186738, -19.05000000000000071 ) ) ;
#55 = LINE ( 'NONE', #249, #204 ) ;
#56 = AXIS2_PLACEMENT_3D ( 'NONE', #35, #284, #201 ) ;
#57 = ORIENTED_EDGE ( 'NONE', *, *, #235, .T. ) ;
#58 = PRODUCT_DEFINITION_SHAPE ( 'NONE', 'NONE',  #224 ) ;
#59 = ORIENTED_EDGE ( 'NONE', *, *, #213, .T. ) ;
#60 = VERTEX_POINT ( 'NONE', #237 ) ;
#61 = VERTEX_POINT ( 'NONE', #344 ) ;
#62 = DIRECTION ( 'NONE',  ( 1.000000000000000000, 0.0000000000000000000, 0.0000000000000000000 ) ) ;
#63 = VECTOR ( 'NONE', #397, 1000.000000000000000 ) ;
#64 = FACE_OUTER_BOUND ( 'NONE', #358, .T. ) ;
#65 = LINE ( 'NONE', #206, #174 ) ;
#66 = CARTESIAN_POINT ( 'NONE',  ( 16.84314575050761675, 1.000000000000000888, 0.0000000000000000000 ) ) ;
#67 = DIRECTION ( 'NONE',  ( -1.161518853562087414E-16, 1.000000000000000000, 8.677831656748562794E-15 ) ) ;
#68 = PRODUCT_DEFINITION_FORMATION_WITH_SPECIFIED_SOURCE ( 'ANY', '', #45, .NOT_KNOWN. ) ;
#69 = LINE ( 'NONE', #2, #138 ) ;
#70 = AXIS2_PLACEMENT_3D ( 'NONE', #395, #165, #255 ) ;
#71 = FACE_OUTER_BOUND ( 'NONE', #52, .T. ) ;
#72 = ORIENTED_EDGE ( 'NONE', *, *, #209, .F. ) ;
#73 = AXIS2_PLACEMENT_3D ( 'NONE', #197, #163, #42 ) ;
#74 = VECTOR ( 'NONE', #146, 1000.000000000000000 ) ;
#75 = FACE_OUTER_BOUND ( 'NONE', #106, .T. ) ;
#76 = VECTOR ( 'NONE', #22, 1000.000000000000000 ) ;
#77 = SURFACE_STYLE_USAGE ( .BOTH. , #246 ) ;
#78 = CYLINDRICAL_SURFACE ( 'NONE', #339, 4.000000000000000000 ) ;
#79 =( NAMED_UNIT ( * ) SI_UNIT ( $, .STERADIAN. ) SOLID_ANGLE_UNIT ( ) );
#80 = FACE_OUTER_BOUND ( 'NONE', #32, .T. ) ;
#81 = CARTESIAN_POINT ( 'NONE',  ( 2.449293598294706513E-15, 5.000000000000000000, -19.05000000000000071 ) ) ;
#82 = LINE ( 'NONE', #156, #87 ) ;
#83 = VECTOR ( 'NONE', #111, 1000.000000000000000 ) ;
#84 = CARTESIAN_POINT ( 'NONE',  ( 3.000000000000002665, 0.2199113894877525177, -1.564750842369094785 ) ) ;
#85 = VECTOR ( 'NONE', #97, 1000.000000000000000 ) ;
#86 = EDGE_CURVE ( 'NONE', #355, #37, #312, .T. ) ;
#87 = VECTOR ( 'NONE', #322, 1000.000000000000000 ) ;
#88 = FACE_OUTER_BOUND ( 'NONE', #378, .T. ) ;
#89 = EDGE_CURVE ( 'NONE', #115, #164, #308, .T. ) ;
#90 = CARTESIAN_POINT ( 'NONE',  ( 0.0000000000000000000, 25.00000000000000000, -19.05000000000000071 ) ) ;
#91 = VECTOR ( 'NONE', #196, 1000.000000000000000 ) ;
#92 = PRODUCT_RELATED_PRODUCT_CATEGORY ( 'part', '', ( #45 ) ) ;
#93 = ORIENTED_EDGE ( 'NONE', *, *, #161, .T. ) ;
#94 = CARTESIAN_POINT ( 'NONE',  ( 125.0000000000000000, 0.0000000000000000000, -19.05000000000000071 ) ) ;
#95 = VECTOR ( 'NONE', #295, 1000.000000000000000 ) ;
#96 = DIRECTION ( 'NONE',  ( -0.0000000000000000000, 1.000000000000000000, -0.0000000000000000000 ) ) ;
#97 = DIRECTION ( 'NONE',  ( 1.000000000000000000, 0.0000000000000000000, 0.0000000000000000000 ) ) ;
#98 = VERTEX_POINT ( 'NONE', #273 ) ;
#99 = LINE ( 'NONE', #285, #168 ) ;
#100 = DIRECTION ( 'NONE',  ( 1.007946507735138592E-30, -8.677831656748562794E-15, 1.000000000000000000 ) ) ;
#101 = DIRECTION ( 'NONE',  ( -1.000000000000000000, 0.0000000000000000000, 0.0000000000000000000 ) ) ;
#102 = ADVANCED_FACE ( 'NONE', ( #294 ), #298, .F. ) ;
#103 =( LENGTH_UNIT ( ) NAMED_UNIT ( * ) SI_UNIT ( .MILLI., .METRE. ) );
#104 = FACE_OUTER_BOUND ( 'NONE', #31, .T. ) ;
#105 = ORIENTED_EDGE ( 'NONE', *, *, #121, .F. ) ;
#106 = EDGE_LOOP ( 'NONE', ( #248, #93, #361, #151 ) ) ;
#107 =( GEOMETRIC_REPRESENTATION_CONTEXT ( 3 ) GLOBAL_UNCERTAINTY_ASSIGNED_CONTEXT ( ( #40 ) ) GLOBAL_UNIT_ASSIGNED_CONTEXT ( ( #390, #263, #79 ) ) REPRESENTATION_CONTEXT ( 'NONE', 'WORKASPACE' ) );
#108 = DIRECTION ( 'NONE',  ( -1.161518853562087414E-16, 1.000000000000000000, 8.677831656748562794E-15 ) ) ;
#109 = CARTESIAN_POINT ( 'NONE',  ( 3.469446951953614189E-15, 0.2199113894877525177, -1.564750842369094785 ) ) ;
#110 = ORIENTED_EDGE ( 'NONE', *, *, #218, .F. ) ;
#111 = DIRECTION ( 'NONE',  ( -1.000000000000000000, -1.161518853562087414E-16, 0.0000000000000000000 ) ) ;
#112 = SURFACE_STYLE_USAGE ( .BOTH. , #311 ) ;
#113 = CARTESIAN_POINT ( 'NONE',  ( 7.286648454926751965E-16, 19.05000000000000071, -19.05000000000000071 ) ) ;
#114 = LINE ( 'NONE', #54, #51 ) ;
#115 = VERTEX_POINT ( 'NONE', #14 ) ;
#116 = VECTOR ( 'NONE', #288, 1000.000000000000000 ) ;
#117 = VECTOR ( 'NONE', #261, 1000.000000000000227 ) ;
#118 = ORIENTED_EDGE ( 'NONE', *, *, #321, .F. ) ;
#119 = DIRECTION ( 'NONE',  ( 0.0000000000000000000, -1.000000000000000000, 0.0000000000000000000 ) ) ;
#120 = EDGE_LOOP ( 'NONE', ( #7, #336, #141, #203, #191, #359, #349, #105, #49 ) ) ;
#121 = EDGE_CURVE ( 'NONE', #331, #392, #287, .T. ) ;
#122 = VECTOR ( 'NONE', #377, 1000.000000000000000 ) ;
#123 = PLANE ( 'NONE',  #70 ) ;
#124 = CARTESIAN_POINT ( 'NONE',  ( 3.000000000000002665, -1.613292832658430598E-13, -1.387778780781445676E-14 ) ) ;
#125 = DIRECTION ( 'NONE',  ( 1.000000000000000000, -1.788933584601082316E-15, 0.0000000000000000000 ) ) ;
#126 = COLOUR_RGB ( '',0.9372549019607843146, 0.9607843137254902244, 1.000000000000000000 ) ;
#127 = LINE ( 'NONE', #244, #117 ) ;
#128 = FACE_OUTER_BOUND ( 'NONE', #129, .T. ) ;
#129 = EDGE_LOOP ( 'NONE', ( #208, #72, #286, #4, #154, #226, #220 ) ) ;
#130 = DIRECTION ( 'NONE',  ( 0.0000000000000000000, -0.0000000000000000000, -1.000000000000000000 ) ) ;
#131 = ADVANCED_BREP_SHAPE_REPRESENTATION ( 'CUT-153-02-05', ( #36, #401 ), #314 ) ;
#132 = EDGE_CURVE ( 'NONE', #271, #222, #375, .T. ) ;
#133 = ORIENTED_EDGE ( 'NONE', *, *, #178, .T. ) ;
#134 = VECTOR ( 'NONE', #38, 1000.000000000000114 ) ;
#135 = VECTOR ( 'NONE', #228, 1000.000000000000114 ) ;
#136 = ADVANCED_FACE ( 'NONE', ( #316 ), #326, .T. ) ;
#137 = ORIENTED_EDGE ( 'NONE', *, *, #368, .T. ) ;
#138 = VECTOR ( 'NONE', #207, 1000.000000000000000 ) ;
#139 = SHAPE_DEFINITION_REPRESENTATION ( #58, #131 ) ;
#140 = LINE ( 'NONE', #90, #143 ) ;
#141 = ORIENTED_EDGE ( 'NONE', *, *, #218, .T. ) ;
#142 = EDGE_CURVE ( 'NONE', #98, #271, #55, .T. ) ;
#143 = VECTOR ( 'NONE', #16, 1000.000000000000000 ) ;
#144 = ORIENTED_EDGE ( 'NONE', *, *, #132, .T. ) ;
#145 = CARTESIAN_POINT ( 'NONE',  ( 125.0000000000000000, 25.00000000000000000, 0.0000000000000000000 ) ) ;
#146 = DIRECTION ( 'NONE',  ( 0.0000000000000000000, 0.0000000000000000000, 1.000000000000000000 ) ) ;
#147 = CARTESIAN_POINT ( 'NONE',  ( 7.286648454926751965E-16, 19.05000000000000071, -19.05000000000000071 ) ) ;
#148 = CARTESIAN_POINT ( 'NONE',  ( 3.469446951953614189E-15, -1.613292832658430598E-13, -1.387778780781445676E-14 ) ) ;
#149 = LINE ( 'NONE', #147, #276 ) ;
#150 = DIRECTION ( 'NONE',  ( 0.0000000000000000000, 0.0000000000000000000, 1.000000000000000000 ) ) ;
#151 = ORIENTED_EDGE ( 'NONE', *, *, #365, .F. ) ;
#152 = LINE ( 'NONE', #347, #76 ) ;
#153 = ORIENTED_EDGE ( 'NONE', *, *, #200, .F. ) ;
#154 = ORIENTED_EDGE ( 'NONE', *, *, #6, .F. ) ;
#155 = CARTESIAN_POINT ( 'NONE',  ( 19.67157287525381193, 3.828427124746186738, 0.0000000000000000000 ) ) ;
#156 = CARTESIAN_POINT ( 'NONE',  ( 16.84314575050761675, 5.000000000000000000, 0.0000000000000000000 ) ) ;
#157 = LINE ( 'NONE', #369, #135 ) ;
#158 = CARTESIAN_POINT ( 'NONE',  ( 0.0000000000000000000, 0.0000000000000000000, 0.0000000000000000000 ) ) ;
#159 = CARTESIAN_POINT ( 'NONE',  ( 2.999999999999999556, 5.000000000000021316, -4.911804920760110882 ) ) ;
#160 = LINE ( 'NONE', #373, #83 ) ;
#161 = EDGE_CURVE ( 'NONE', #296, #21, #25, .T. ) ;
#162 = CARTESIAN_POINT ( 'NONE',  ( 3.000000000000002665, -1.613292832658430598E-13, -1.387778780781445676E-14 ) ) ;
#163 = DIRECTION ( 'NONE',  ( -0.0000000000000000000, 0.0000000000000000000, 1.000000000000000000 ) ) ;
#164 = VERTEX_POINT ( 'NONE', #241 ) ;
#165 = DIRECTION ( 'NONE',  ( 6.662198447806896522E-17, -0.5735764363510418296, -0.8191520442889947962 ) ) ;
#166 = AXIS2_PLACEMENT_3D ( 'NONE', #66, #398, #125 ) ;
#167 = PLANE ( 'NONE',  #73 ) ;
#168 = VECTOR ( 'NONE', #47, 999.9999999999998863 ) ;
#169 = ADVANCED_FACE ( 'NONE', ( #128 ), #167, .F. ) ;
#170 = UNCERTAINTY_MEASURE_WITH_UNIT (LENGTH_MEASURE( 1.000000000000000082E-05 ), #303, 'distance_accuracy_value', 'NONE');
#171 = FACE_OUTER_BOUND ( 'NONE', #240, .T. ) ;
#172 =( NAMED_UNIT ( * ) PLANE_ANGLE_UNIT ( ) SI_UNIT ( $, .RADIAN. ) );
#173 = VECTOR ( 'NONE', #238, 1000.000000000000000 ) ;
#174 = VECTOR ( 'NONE', #396, 1000.000000000000000 ) ;
#175 = ORIENTED_EDGE ( 'NONE', *, *, #283, .F. ) ;
#176 = EDGE_CURVE ( 'NONE', #348, #60, #198, .T. ) ;
#177 = ORIENTED_EDGE ( 'NONE', *, *, #356, .F. ) ;
#178 = EDGE_CURVE ( 'NONE', #21, #331, #34, .T. ) ;
#179 = EDGE_CURVE ( 'NONE', #296, #383, #13, .T. ) ;
#180 = CARTESIAN_POINT ( 'NONE',  ( 2.999999999999999556, 5.000000000000021316, -5.999999999999965361 ) ) ;
#181 = LINE ( 'NONE', #318, #63 ) ;
#182 = EDGE_LOOP ( 'NONE', ( #59, #343, #379, #310, #320, #282 ) ) ;
#183 =( GEOMETRIC_REPRESENTATION_CONTEXT ( 3 ) GLOBAL_UNCERTAINTY_ASSIGNED_CONTEXT ( ( #374 ) ) GLOBAL_UNIT_ASSIGNED_CONTEXT ( ( #103, #172, #252 ) ) REPRESENTATION_CONTEXT ( 'NONE', 'WORKASPACE' ) );
#184 = ORIENTED_EDGE ( 'NONE', *, *, #142, .T. ) ;
#185 = AXIS2_PLACEMENT_3D ( 'NONE', #292, #3, #62 ) ;
#186 = ORIENTED_EDGE ( 'NONE', *, *, #225, .F. ) ;
#187 = APPLICATION_CONTEXT ( 'automotive_design' ) ;
#188 = LINE ( 'NONE', #389, #173 ) ;
#189 = CARTESIAN_POINT ( 'NONE',  ( 23.49999999999998579, 0.0000000000000000000, -19.05000000000000071 ) ) ;
#190 = ORIENTED_EDGE ( 'NONE', *, *, #179, .T. ) ;
#191 = ORIENTED_EDGE ( 'NONE', *, *, #89, .T. ) ;
#192 = AXIS2_PLACEMENT_3D ( 'NONE', #256, #100, #67 ) ;
#193 = CARTESIAN_POINT ( 'NONE',  ( 3.469446951953614189E-15, 7.499999999999902300, -2.999999999999954259 ) ) ;
#194 = EDGE_CURVE ( 'NONE', #315, #392, #127, .T. ) ;
#195 = CARTESIAN_POINT ( 'NONE',  ( 3.000000000000002665, -1.613292832658430598E-13, -1.387778780781445676E-14 ) ) ;
#196 = DIRECTION ( 'NONE',  ( 0.0000000000000000000, 0.0000000000000000000, 1.000000000000000000 ) ) ;
#197 = CARTESIAN_POINT ( 'NONE',  ( 0.0000000000000000000, 0.0000000000000000000, -19.05000000000000071 ) ) ;
#198 = LINE ( 'NONE', #266, #19 ) ;
#199 = ORIENTED_EDGE ( 'NONE', *, *, #205, .F. ) ;
#200 = EDGE_CURVE ( 'NONE', #61, #164, #243, .T. ) ;
#201 = DIRECTION ( 'NONE',  ( -0.0000000000000000000, 0.0000000000000000000, -1.000000000000000000 ) ) ;
#202 = ADVANCED_FACE ( 'NONE', ( #104 ), #26, .T. ) ;
#203 = ORIENTED_EDGE ( 'NONE', *, *, #353, .T. ) ;
#204 = VECTOR ( 'NONE', #258, 999.9999999999998863 ) ;
#205 = EDGE_CURVE ( 'NONE', #296, #355, #251, .T. ) ;
#206 = CARTESIAN_POINT ( 'NONE',  ( 3.000000000000002665, 8.445896366636842956, 5.551115123125782702E-14 ) ) ;
#207 = DIRECTION ( 'NONE',  ( 1.000000000000000000, 0.0000000000000000000, 0.0000000000000000000 ) ) ;
#208 = ORIENTED_EDGE ( 'NONE', *, *, #29, .T. ) ;
#209 = EDGE_CURVE ( 'NONE', #380, #268, #9, .T. ) ;
#210 =( NAMED_UNIT ( * ) PLANE_ANGLE_UNIT ( ) SI_UNIT ( $, .RADIAN. ) );
#211 = FILL_AREA_STYLE ('',( #41 ) ) ;
#212 = LINE ( 'NONE', #363, #74 ) ;
#213 = EDGE_CURVE ( 'NONE', #392, #60, #257, .T. ) ;
#214 = DIRECTION ( 'NONE',  ( 1.616521806738838559E-17, -0.1391731009601240021, 0.9902680687415620353 ) ) ;
#215 = VECTOR ( 'NONE', #299, 1000.000000000000000 ) ;
#216 = FACE_OUTER_BOUND ( 'NONE', #399, .T. ) ;
#217 = ORIENTED_EDGE ( 'NONE', *, *, #364, .T. ) ;
#218 = EDGE_CURVE ( 'NONE', #289, #222, #99, .T. ) ;
#219 = DIRECTION ( 'NONE',  ( 0.0000000000000000000, -0.0000000000000000000, -1.000000000000000000 ) ) ;
#220 = ORIENTED_EDGE ( 'NONE', *, *, #142, .F. ) ;
#221 = CARTESIAN_POINT ( 'NONE',  ( 3.000000000000002665, -1.613292832658430598E-13, -1.387778780781445676E-14 ) ) ;
#222 = VERTEX_POINT ( 'NONE', #230 ) ;
#223 = CIRCLE ( 'NONE', #166, 4.000000000000000000 ) ;
#224 = PRODUCT_DEFINITION ( 'UNKNOWN', '', #68, #245 ) ;
#225 = EDGE_CURVE ( 'NONE', #21, #315, #160, .T. ) ;
#226 = ORIENTED_EDGE ( 'NONE', *, *, #368, .F. ) ;
#227 =( NAMED_UNIT ( * ) SI_UNIT ( $, .STERADIAN. ) SOLID_ANGLE_UNIT ( ) );
#228 = DIRECTION ( 'NONE',  ( 9.514605433755934095E-17, -0.8191520442889946851, 0.5735764363510417185 ) ) ;
#229 = ORIENTED_EDGE ( 'NONE', *, *, #178, .F. ) ;
#230 = CARTESIAN_POINT ( 'NONE',  ( 23.49999999999998579, 0.0000000000000000000, 0.0000000000000000000 ) ) ;
#231 = MECHANICAL_DESIGN_GEOMETRIC_PRESENTATION_REPRESENTATION (  '', ( #362 ), #183 ) ;
#232 = LINE ( 'NONE', #394, #95 ) ;
#233 = VECTOR ( 'NONE', #96, 1000.000000000000000 ) ;
#234 = ADVANCED_FACE ( 'NONE', ( #88 ), #360, .T. ) ;
#235 = EDGE_CURVE ( 'NONE', #268, #37, #82, .T. ) ;
#236 = ADVANCED_FACE ( 'NONE', ( #80 ), #78, .F. ) ;
#237 = CARTESIAN_POINT ( 'NONE',  ( 7.286648454926751965E-16, 19.05000000000000071, 0.0000000000000000000 ) ) ;
#238 = DIRECTION ( 'NONE',  ( -0.0000000000000000000, 1.000000000000000000, -0.0000000000000000000 ) ) ;
#239 = COLOUR_RGB ( '',0.9372549019607843146, 0.9607843137254902244, 1.000000000000000000 ) ;
#240 = EDGE_LOOP ( 'NONE', ( #367, #260, #137, #217 ) ) ;
#241 = CARTESIAN_POINT ( 'NONE',  ( 125.0000000000000000, 19.05000000000000071, 0.0000000000000000000 ) ) ;
#242 = PLANE ( 'NONE',  #278 ) ;
#243 = LINE ( 'NONE', #39, #116 ) ;
#244 = CARTESIAN_POINT ( 'NONE',  ( 3.469446951953614189E-15, -1.613292832658430598E-13, -1.387778780781445676E-14 ) ) ;
#245 = PRODUCT_DEFINITION_CONTEXT ( 'detailed design', #187, 'design' ) ;
#246 = SURFACE_SIDE_STYLE ('',( #333 ) ) ;
#247 = PRODUCT_CONTEXT ( 'NONE', #338, 'mechanical' ) ;
#248 = ORIENTED_EDGE ( 'NONE', *, *, #179, .F. ) ;
#249 = CARTESIAN_POINT ( 'NONE',  ( 18.50000000000000355, 5.000000000000000000, -19.05000000000000071 ) ) ;
#250 = AXIS2_PLACEMENT_3D ( 'NONE', #366, #50, #370 ) ;
#251 = LINE ( 'NONE', #180, #215 ) ;
#252 =( NAMED_UNIT ( * ) SI_UNIT ( $, .STERADIAN. ) SOLID_ANGLE_UNIT ( ) );
#253 = CARTESIAN_POINT ( 'NONE',  ( 16.84314575050761675, 5.000000000000000000, 0.0000000000000000000 ) ) ;
#254 = VECTOR ( 'NONE', #214, 1000.000000000000227 ) ;
#255 = DIRECTION ( 'NONE',  ( 9.514605433755934095E-17, -0.8191520442889946851, 0.5735764363510417185 ) ) ;
#256 = CARTESIAN_POINT ( 'NONE',  ( 3.000000000000002665, 8.445896366636842956, 5.551115123125782702E-14 ) ) ;
#257 = LINE ( 'NONE', #372, #259 ) ;
#258 = DIRECTION ( 'NONE',  ( 0.7071067811865463515, -0.7071067811865487940, 0.0000000000000000000 ) ) ;
#259 = VECTOR ( 'NONE', #108, 1000.000000000000000 ) ;
#260 = ORIENTED_EDGE ( 'NONE', *, *, #132, .F. ) ;
#261 = DIRECTION ( 'NONE',  ( 1.616521806738838559E-17, -0.1391731009601240021, 0.9902680687415620353 ) ) ;
#262 = VERTEX_POINT ( 'NONE', #94 ) ;
#263 =( NAMED_UNIT ( * ) PLANE_ANGLE_UNIT ( ) SI_UNIT ( $, .RADIAN. ) );
#264 = DIRECTION ( 'NONE',  ( 0.0000000000000000000, -1.000000000000000000, 0.0000000000000000000 ) ) ;
#265 = ORIENTED_EDGE ( 'NONE', *, *, #6, .T. ) ;
#266 = CARTESIAN_POINT ( 'NONE',  ( 7.286648454926751965E-16, 19.05000000000000071, -19.05000000000000071 ) ) ;
#267 = ADVANCED_FACE ( 'NONE', ( #171 ), #24, .T. ) ;
#268 = VERTEX_POINT ( 'NONE', #371 ) ;
#269 = SURFACE_STYLE_FILL_AREA ( #211 ) ;
#270 = CARTESIAN_POINT ( 'NONE',  ( 2.449293598294706513E-15, 5.000000000000000000, 0.0000000000000000000 ) ) ;
#271 = VERTEX_POINT ( 'NONE', #301 ) ;
#272 = ORIENTED_EDGE ( 'NONE', *, *, #194, .F. ) ;
#273 = CARTESIAN_POINT ( 'NONE',  ( 19.67157287525381193, 3.828427124746186738, -19.05000000000000071 ) ) ;
#274 = CARTESIAN_POINT ( 'NONE',  ( 7.286648454926751965E-16, 19.05000000000000071, -19.05000000000000071 ) ) ;
#275 = VECTOR ( 'NONE', #335, 1000.000000000000000 ) ;
#276 = VECTOR ( 'NONE', #317, 1000.000000000000000 ) ;
#277 = ORIENTED_EDGE ( 'NONE', *, *, #89, .F. ) ;
#278 = AXIS2_PLACEMENT_3D ( 'NONE', #274, #119, #130 ) ;
#279 = DIRECTION ( 'NONE',  ( 1.000000000000000000, 0.0000000000000000000, 0.0000000000000000000 ) ) ;
#280 = APPLICATION_PROTOCOL_DEFINITION ( 'draft international standard', 'automotive_design', 1998, #338 ) ;
#281 = EDGE_CURVE ( 'NONE', #60, #164, #232, .T. ) ;
#282 = ORIENTED_EDGE ( 'NONE', *, *, #194, .T. ) ;
#283 = EDGE_CURVE ( 'NONE', #37, #289, #223, .T. ) ;
#284 = DIRECTION ( 'NONE',  ( 1.000000000000000000, 0.0000000000000000000, -0.0000000000000000000 ) ) ;
#285 = CARTESIAN_POINT ( 'NONE',  ( 18.50000000000000355, 5.000000000000000000, 0.0000000000000000000 ) ) ;
#286 = ORIENTED_EDGE ( 'NONE', *, *, #324, .F. ) ;
#287 = LINE ( 'NONE', #162, #327 ) ;
#288 = DIRECTION ( 'NONE',  ( -0.0000000000000000000, -0.0000000000000000000, 1.000000000000000000 ) ) ;
#289 = VERTEX_POINT ( 'NONE', #155 ) ;
#290 = ADVANCED_FACE ( 'NONE', ( #216 ), #242, .F. ) ;
#291 = DIRECTION ( 'NONE',  ( 1.161518853562087414E-16, -1.000000000000000000, -2.721450164542462693E-15 ) ) ;
#292 = CARTESIAN_POINT ( 'NONE',  ( 16.84314575050761675, 1.000000000000000888, -19.05000000000000071 ) ) ;
#293 = CIRCLE ( 'NONE', #185, 4.000000000000000000 ) ;
#294 = FACE_OUTER_BOUND ( 'NONE', #182, .T. ) ;
#295 = DIRECTION ( 'NONE',  ( 1.000000000000000000, 0.0000000000000000000, 0.0000000000000000000 ) ) ;
#296 = VERTEX_POINT ( 'NONE', #159 ) ;
#297 = DIRECTION ( 'NONE',  ( 1.150215031923841474E-16, -0.9902680687415621463, -0.1391731009601240299 ) ) ;
#298 = PLANE ( 'NONE',  #1 ) ;
#299 = DIRECTION ( 'NONE',  ( 0.0000000000000000000, 0.0000000000000000000, 1.000000000000000000 ) ) ;
#300 = AXIS2_PLACEMENT_3D ( 'NONE', #81, #264, #219 ) ;
#301 = CARTESIAN_POINT ( 'NONE',  ( 23.49999999999998579, 0.0000000000000000000, -19.05000000000000071 ) ) ;
#302 = FACE_OUTER_BOUND ( 'NONE', #351, .T. ) ;
#303 =( LENGTH_UNIT ( ) NAMED_UNIT ( * ) SI_UNIT ( .MILLI., .METRE. ) );
#304 = AXIS2_PLACEMENT_3D ( 'NONE', #341, #381, #20 ) ;
#305 = CARTESIAN_POINT ( 'NONE',  ( 2.914230647672874042E-15, 5.000000000000020428, -4.911804920760125093 ) ) ;
#306 = DIRECTION ( 'NONE',  ( 0.0000000000000000000, 0.0000000000000000000, -1.000000000000000000 ) ) ;
#307 = CARTESIAN_POINT ( 'NONE',  ( 3.000000000000003109, 5.000000000000000000, 2.560824265498177030E-14 ) ) ;
#308 = LINE ( 'NONE', #145, #233 ) ;
#309 = AXIS2_PLACEMENT_3D ( 'NONE', #195, #297, #8 ) ;
#310 = ORIENTED_EDGE ( 'NONE', *, *, #321, .T. ) ;
#311 = SURFACE_SIDE_STYLE ('',( #269 ) ) ;
#312 = LINE ( 'NONE', #270, #85 ) ;
#313 = DIRECTION ( 'NONE',  ( -0.7071067811865486830, -0.7071067811865463515, 0.0000000000000000000 ) ) ;
#314 =( GEOMETRIC_REPRESENTATION_CONTEXT ( 3 ) GLOBAL_UNCERTAINTY_ASSIGNED_CONTEXT ( ( #170 ) ) GLOBAL_UNIT_ASSIGNED_CONTEXT ( ( #303, #210, #227 ) ) REPRESENTATION_CONTEXT ( 'NONE', 'WORKASPACE' ) );
#315 = VERTEX_POINT ( 'NONE', #109 ) ;
#316 = FACE_OUTER_BOUND ( 'NONE', #120, .T. ) ;
#317 = DIRECTION ( 'NONE',  ( 1.000000000000000000, 0.0000000000000000000, 0.0000000000000000000 ) ) ;
#318 = CARTESIAN_POINT ( 'NONE',  ( 125.0000000000000000, 0.0000000000000000000, -19.05000000000000071 ) ) ;
#319 = ORIENTED_EDGE ( 'NONE', *, *, #209, .T. ) ;
#320 = ORIENTED_EDGE ( 'NONE', *, *, #365, .T. ) ;
#321 = EDGE_CURVE ( 'NONE', #380, #383, #212, .T. ) ;
#322 = DIRECTION ( 'NONE',  ( 0.0000000000000000000, 0.0000000000000000000, 1.000000000000000000 ) ) ;
#323 = ORIENTED_EDGE ( 'NONE', *, *, #200, .T. ) ;
#324 = EDGE_CURVE ( 'NONE', #348, #380, #140, .T. ) ;
#325 = DIRECTION ( 'NONE',  ( -0.0000000000000000000, -0.0000000000000000000, 1.000000000000000000 ) ) ;
#326 = PLANE ( 'NONE',  #192 ) ;
#327 = VECTOR ( 'NONE', #46, 1000.000000000000000 ) ;
#328 = ORIENTED_EDGE ( 'NONE', *, *, #18, .F. ) ;
#329 = ORIENTED_EDGE ( 'NONE', *, *, #235, .F. ) ;
#330 = ADVANCED_FACE ( 'NONE', ( #71 ), #352, .T. ) ;
#331 = VERTEX_POINT ( 'NONE', #221 ) ;
#332 = DIRECTION ( 'NONE',  ( 0.7071067811865463515, -0.7071067811865486830, 0.0000000000000000000 ) ) ;
#333 = SURFACE_STYLE_FILL_AREA ( #12 ) ;
#334 = PLANE ( 'NONE',  #304 ) ;
#335 = DIRECTION ( 'NONE',  ( 1.000000000000000000, 0.0000000000000000000, 0.0000000000000000000 ) ) ;
#336 = ORIENTED_EDGE ( 'NONE', *, *, #283, .T. ) ;
#337 = PRESENTATION_STYLE_ASSIGNMENT (( #112 ) ) ;
#338 = APPLICATION_CONTEXT ( 'automotive_design' ) ;
#339 = AXIS2_PLACEMENT_3D ( 'NONE', #400, #306, #101 ) ;
#340 = ORIENTED_EDGE ( 'NONE', *, *, #121, .T. ) ;
#341 = CARTESIAN_POINT ( 'NONE',  ( 3.000000000000002665, 7.499999999999902300, -2.999999999999954259 ) ) ;
#342 = FILL_AREA_STYLE_COLOUR ( '', #239 ) ;
#343 = ORIENTED_EDGE ( 'NONE', *, *, #176, .F. ) ;
#344 = CARTESIAN_POINT ( 'NONE',  ( 125.0000000000000000, 19.05000000000000071, -19.05000000000000071 ) ) ;
#345 = MECHANICAL_DESIGN_GEOMETRIC_PRESENTATION_REPRESENTATION (  '', ( #15 ), #107 ) ;
#346 = CARTESIAN_POINT ( 'NONE',  ( 3.000000000000002665, 0.2199113894877525177, -1.564750842369094785 ) ) ;
#347 = CARTESIAN_POINT ( 'NONE',  ( 23.49999999999998579, 0.0000000000000000000, 0.0000000000000000000 ) ) ;
#348 = VERTEX_POINT ( 'NONE', #113 ) ;
#349 = ORIENTED_EDGE ( 'NONE', *, *, #213, .F. ) ;
#350 = ORIENTED_EDGE ( 'NONE', *, *, #205, .T. ) ;
#351 = EDGE_LOOP ( 'NONE', ( #350, #177, #229, #388 ) ) ;
#352 = PLANE ( 'NONE',  #309 ) ;
#353 = EDGE_CURVE ( 'NONE', #222, #115, #152, .T. ) ;
#354 = CARTESIAN_POINT ( 'NONE',  ( 18.50000000000000355, 5.000000000000000000, -19.05000000000000071 ) ) ;
#355 = VERTEX_POINT ( 'NONE', #307 ) ;
#356 = EDGE_CURVE ( 'NONE', #331, #355, #65, .T. ) ;
#357 = ADVANCED_FACE ( 'NONE', ( #64 ), #48, .T. ) ;
#358 = EDGE_LOOP ( 'NONE', ( #110, #28, #184, #144 ) ) ;
#359 = ORIENTED_EDGE ( 'NONE', *, *, #281, .F. ) ;
#360 = PLANE ( 'NONE',  #56 ) ;
#361 = ORIENTED_EDGE ( 'NONE', *, *, #225, .T. ) ;
#362 = STYLED_ITEM ( 'NONE', ( #337 ), #36 ) ;
#363 = CARTESIAN_POINT ( 'NONE',  ( 2.449293598294706513E-15, 5.000000000000000000, -19.05000000000000071 ) ) ;
#364 = EDGE_CURVE ( 'NONE', #262, #115, #181, .T. ) ;
#365 = EDGE_CURVE ( 'NONE', #383, #315, #157, .T. ) ;
#366 = CARTESIAN_POINT ( 'NONE',  ( 23.49999999999998579, 0.0000000000000000000, -19.05000000000000071 ) ) ;
#367 = ORIENTED_EDGE ( 'NONE', *, *, #353, .F. ) ;
#368 = EDGE_CURVE ( 'NONE', #271, #262, #69, .T. ) ;
#369 = CARTESIAN_POINT ( 'NONE',  ( 3.469446951953614189E-15, 0.2199113894877525177, -1.564750842369094785 ) ) ;
#370 = DIRECTION ( 'NONE',  ( 0.0000000000000000000, -0.0000000000000000000, -1.000000000000000000 ) ) ;
#371 = CARTESIAN_POINT ( 'NONE',  ( 16.84314575050761675, 5.000000000000000000, -19.05000000000000071 ) ) ;
#372 = CARTESIAN_POINT ( 'NONE',  ( 3.469446951953614189E-15, 8.445896366636842956, 5.551115123125782702E-14 ) ) ;
#373 = CARTESIAN_POINT ( 'NONE',  ( 3.000000000000002665, 0.2199113894877525177, -1.564750842369094785 ) ) ;
#374 = UNCERTAINTY_MEASURE_WITH_UNIT (LENGTH_MEASURE( 1.000000000000000082E-05 ), #103, 'distance_accuracy_value', 'NONE');
#375 = LINE ( 'NONE', #189, #91 ) ;
#376 = ORIENTED_EDGE ( 'NONE', *, *, #364, .F. ) ;
#377 = DIRECTION ( 'NONE',  ( -1.000000000000000000, -1.161518853562087414E-16, 6.162975822039154730E-33 ) ) ;
#378 = EDGE_LOOP ( 'NONE', ( #323, #277, #376, #265 ) ) ;
#379 = ORIENTED_EDGE ( 'NONE', *, *, #324, .T. ) ;
#380 = VERTEX_POINT ( 'NONE', #402 ) ;
#381 = DIRECTION ( 'NONE',  ( 1.000000000000000000, 1.161518853562087414E-16, 0.0000000000000000000 ) ) ;
#382 = ORIENTED_EDGE ( 'NONE', *, *, #29, .F. ) ;
#383 = VERTEX_POINT ( 'NONE', #305 ) ;
#384 = ORIENTED_EDGE ( 'NONE', *, *, #86, .F. ) ;
#385 = ORIENTED_EDGE ( 'NONE', *, *, #176, .T. ) ;
#386 = PRESENTATION_STYLE_ASSIGNMENT (( #77 ) ) ;
#387 = CLOSED_SHELL ( 'NONE', ( #102, #136, #330, #43, #11, #234, #267, #357, #202, #169, #236, #290 ) ) ;
#388 = ORIENTED_EDGE ( 'NONE', *, *, #161, .F. ) ;
#389 = CARTESIAN_POINT ( 'NONE',  ( 125.0000000000000000, 25.00000000000000000, -19.05000000000000071 ) ) ;
#390 =( LENGTH_UNIT ( ) NAMED_UNIT ( * ) SI_UNIT ( .MILLI., .METRE. ) );
#391 = CARTESIAN_POINT ( 'NONE',  ( 2.449293598294706513E-15, 5.000000000000000000, -19.05000000000000071 ) ) ;
#392 = VERTEX_POINT ( 'NONE', #148 ) ;
#393 = AXIS2_PLACEMENT_3D ( 'NONE', #354, #313, #332 ) ;
#394 = CARTESIAN_POINT ( 'NONE',  ( 7.286648454926751965E-16, 19.05000000000000071, 0.0000000000000000000 ) ) ;
#395 = CARTESIAN_POINT ( 'NONE',  ( 3.000000000000002665, 0.2199113894877525177, -1.564750842369094785 ) ) ;
#396 = DIRECTION ( 'NONE',  ( -1.161518853562087414E-16, 1.000000000000000000, 8.677831656748562794E-15 ) ) ;
#397 = DIRECTION ( 'NONE',  ( 0.0000000000000000000, 0.0000000000000000000, 1.000000000000000000 ) ) ;
#398 = DIRECTION ( 'NONE',  ( 0.0000000000000000000, -0.0000000000000000000, -1.000000000000000000 ) ) ;
#399 = EDGE_LOOP ( 'NONE', ( #53, #153, #23, #385 ) ) ;
#400 = CARTESIAN_POINT ( 'NONE',  ( 16.84314575050761675, 1.000000000000000888, -19.05000000000000071 ) ) ;
#401 = AXIS2_PLACEMENT_3D ( 'NONE', #158, #150, #279 ) ;
#402 = CARTESIAN_POINT ( 'NONE',  ( 2.449293598294706513E-15, 5.000000000000000000, -19.05000000000000071 ) ) ;
ENDSEC;
END-ISO-10303-21;
