ISO-10303-21;
HEADER;
FILE_DESCRIPTION (( 'STEP AP214' ),
    '1' );
FILE_NAME ('CUT-153-02-06.step',
    '2019-06-05T11:20:19',
    ( '' ),
    ( '' ),
    'SwSTEP 2.0',
    'SolidWorks 2018',
    '' );
FILE_SCHEMA (( 'AUTOMOTIVE_DESIGN' ));
ENDSEC;

DATA;
#1 = EDGE_LOOP ( 'NONE', ( #63, #340, #347, #402, #320, #279 ) ) ;
#2 =( NAMED_UNIT ( * ) SI_UNIT ( $, .STERADIAN. ) SOLID_ANGLE_UNIT ( ) );
#3 = VERTEX_POINT ( 'NONE', #287 ) ;
#4 = SURFACE_STYLE_FILL_AREA ( #212 ) ;
#5 = CARTESIAN_POINT ( 'NONE',  ( 23.49999999999998579, 0.0000000000000000000, -19.05000000000000071 ) ) ;
#6 = ORIENTED_EDGE ( 'NONE', *, *, #342, .T. ) ;
#7 = LINE ( 'NONE', #321, #395 ) ;
#8 = DIRECTION ( 'NONE',  ( 0.0000000000000000000, -1.000000000000000000, 0.0000000000000000000 ) ) ;
#9 = DIRECTION ( 'NONE',  ( -1.000000000000000000, 1.161518853562087414E-16, 0.0000000000000000000 ) ) ;
#10 = COLOUR_RGB ( '',0.9372549019607843146, 0.9607843137254902244, 1.000000000000000000 ) ;
#11 = AXIS2_PLACEMENT_3D ( 'NONE', #231, #173, #366 ) ;
#12 = CARTESIAN_POINT ( 'NONE',  ( 125.0000000000000000, -25.00000000000000000, -19.05000000000000071 ) ) ;
#13 = DIRECTION ( 'NONE',  ( 1.616521806738838559E-17, 0.1391731009601240021, 0.9902680687415620353 ) ) ;
#14 = EDGE_CURVE ( 'NONE', #124, #62, #235, .T. ) ;
#15 = ORIENTED_EDGE ( 'NONE', *, *, #324, .F. ) ;
#16 = VERTEX_POINT ( 'NONE', #111 ) ;
#17 = LINE ( 'NONE', #5, #110 ) ;
#18 = AXIS2_PLACEMENT_3D ( 'NONE', #59, #154, #100 ) ;
#19 = PLANE ( 'NONE',  #39 ) ;
#20 = SURFACE_STYLE_USAGE ( .BOTH. , #301 ) ;
#21 = ORIENTED_EDGE ( 'NONE', *, *, #270, .T. ) ;
#22 = DIRECTION ( 'NONE',  ( -1.000000000000000000, 1.161518853562087414E-16, 6.162975822039154730E-33 ) ) ;
#23 = LINE ( 'NONE', #88, #66 ) ;
#24 = VECTOR ( 'NONE', #176, 999.9999999999998863 ) ;
#25 = ORIENTED_EDGE ( 'NONE', *, *, #237, .T. ) ;
#26 = LINE ( 'NONE', #276, #344 ) ;
#27 = DIRECTION ( 'NONE',  ( 1.000000000000000000, 1.788933584601082316E-15, 0.0000000000000000000 ) ) ;
#28 = EDGE_CURVE ( 'NONE', #114, #16, #272, .T. ) ;
#29 = ORIENTED_EDGE ( 'NONE', *, *, #240, .F. ) ;
#30 = EDGE_CURVE ( 'NONE', #325, #155, #200, .T. ) ;
#31 = LINE ( 'NONE', #64, #157 ) ;
#32 = PRODUCT_DEFINITION ( 'UNKNOWN', '', #57, #234 ) ;
#33 = CLOSED_SHELL ( 'NONE', ( #304, #61, #257, #269, #149, #162, #285, #343, #388, #191, #193, #71 ) ) ;
#34 = ORIENTED_EDGE ( 'NONE', *, *, #211, .F. ) ;
#35 = ORIENTED_EDGE ( 'NONE', *, *, #80, .F. ) ;
#36 = PRODUCT_DEFINITION_SHAPE ( 'NONE', 'NONE',  #32 ) ;
#37 = EDGE_CURVE ( 'NONE', #349, #331, #96, .T. ) ;
#38 = ORIENTED_EDGE ( 'NONE', *, *, #14, .T. ) ;
#39 = AXIS2_PLACEMENT_3D ( 'NONE', #152, #224, #294 ) ;
#40 = ORIENTED_EDGE ( 'NONE', *, *, #372, .F. ) ;
#41 = DIRECTION ( 'NONE',  ( 1.000000000000000000, 0.0000000000000000000, 0.0000000000000000000 ) ) ;
#42 = CARTESIAN_POINT ( 'NONE',  ( 2.449293598294706513E-15, -5.000000000000000000, -19.05000000000000071 ) ) ;
#43 = CARTESIAN_POINT ( 'NONE',  ( 3.469446951953614189E-15, -7.499999999999902300, -2.999999999999954259 ) ) ;
#44 = CARTESIAN_POINT ( 'NONE',  ( 125.0000000000000000, 0.0000000000000000000, -19.05000000000000071 ) ) ;
#45 = DIRECTION ( 'NONE',  ( 1.000000000000000000, -1.161518853562087414E-16, 0.0000000000000000000 ) ) ;
#46 = DIRECTION ( 'NONE',  ( 6.662198447806896522E-17, 0.5735764363510418296, -0.8191520442889947962 ) ) ;
#47 = FACE_OUTER_BOUND ( 'NONE', #256, .T. ) ;
#48 = CIRCLE ( 'NONE', #358, 4.000000000000000000 ) ;
#49 = PRESENTATION_LAYER_ASSIGNMENT (  '', '', ( #303 ) ) ;
#50 = ORIENTED_EDGE ( 'NONE', *, *, #292, .T. ) ;
#51 = ORIENTED_EDGE ( 'NONE', *, *, #89, .F. ) ;
#52 = LINE ( 'NONE', #186, #150 ) ;
#53 = VECTOR ( 'NONE', #8, 1000.000000000000000 ) ;
#54 = EDGE_CURVE ( 'NONE', #278, #349, #48, .T. ) ;
#55 = VECTOR ( 'NONE', #245, 1000.000000000000114 ) ;
#56 = ORIENTED_EDGE ( 'NONE', *, *, #240, .T. ) ;
#57 = PRODUCT_DEFINITION_FORMATION_WITH_SPECIFIED_SOURCE ( 'ANY', '', #380, .NOT_KNOWN. ) ;
#58 = DIRECTION ( 'NONE',  ( 0.0000000000000000000, 0.0000000000000000000, -1.000000000000000000 ) ) ;
#59 = CARTESIAN_POINT ( 'NONE',  ( 16.84314575050761675, -1.000000000000000888, -19.05000000000000071 ) ) ;
#60 =( NAMED_UNIT ( * ) PLANE_ANGLE_UNIT ( ) SI_UNIT ( $, .RADIAN. ) );
#61 = ADVANCED_FACE ( 'NONE', ( #213 ), #87, .T. ) ;
#62 = VERTEX_POINT ( 'NONE', #384 ) ;
#63 = ORIENTED_EDGE ( 'NONE', *, *, #74, .F. ) ;
#64 = CARTESIAN_POINT ( 'NONE',  ( 23.49999999999998579, 0.0000000000000000000, 0.0000000000000000000 ) ) ;
#65 = FACE_OUTER_BOUND ( 'NONE', #296, .T. ) ;
#66 = VECTOR ( 'NONE', #381, 1000.000000000000000 ) ;
#67 = CARTESIAN_POINT ( 'NONE',  ( 16.84314575050761675, -5.000000000000000000, -19.05000000000000071 ) ) ;
#68 = DIRECTION ( 'NONE',  ( 0.0000000000000000000, 0.0000000000000000000, 1.000000000000000000 ) ) ;
#69 = CARTESIAN_POINT ( 'NONE',  ( 23.49999999999998579, 0.0000000000000000000, 0.0000000000000000000 ) ) ;
#70 = LINE ( 'NONE', #12, #53 ) ;
#71 = ADVANCED_FACE ( 'NONE', ( #250 ), #204, .F. ) ;
#72 = ORIENTED_EDGE ( 'NONE', *, *, #376, .F. ) ;
#73 = ORIENTED_EDGE ( 'NONE', *, *, #237, .F. ) ;
#74 = EDGE_CURVE ( 'NONE', #129, #138, #242, .T. ) ;
#75 = DIRECTION ( 'NONE',  ( 1.616521806738838559E-17, 0.1391731009601240021, 0.9902680687415620353 ) ) ;
#76 = ORIENTED_EDGE ( 'NONE', *, *, #80, .T. ) ;
#77 = VERTEX_POINT ( 'NONE', #135 ) ;
#78 = EDGE_CURVE ( 'NONE', #277, #227, #23, .T. ) ;
#79 = DIRECTION ( 'NONE',  ( -1.161518853562087414E-16, -1.000000000000000000, 8.677831656748562794E-15 ) ) ;
#80 = EDGE_CURVE ( 'NONE', #155, #241, #17, .T. ) ;
#81 = PRODUCT_RELATED_PRODUCT_CATEGORY ( 'part', '', ( #380 ) ) ;
#82 = SURFACE_STYLE_USAGE ( .BOTH. , #134 ) ;
#83 = VECTOR ( 'NONE', #268, 1000.000000000000000 ) ;
#84 = LINE ( 'NONE', #208, #108 ) ;
#85 = ORIENTED_EDGE ( 'NONE', *, *, #37, .T. ) ;
#86 = DIRECTION ( 'NONE',  ( -1.161518853562087414E-16, -1.000000000000000000, 8.677831656748562794E-15 ) ) ;
#87 = PLANE ( 'NONE',  #286 ) ;
#88 = CARTESIAN_POINT ( 'NONE',  ( 2.999999999999999556, -5.000000000000021316, -5.999999999999965361 ) ) ;
#89 = EDGE_CURVE ( 'NONE', #325, #300, #310, .T. ) ;
#90 = VECTOR ( 'NONE', #334, 1000.000000000000000 ) ;
#91 = VECTOR ( 'NONE', #9, 1000.000000000000000 ) ;
#92 = EDGE_CURVE ( 'NONE', #3, #125, #119, .T. ) ;
#93 = DIRECTION ( 'NONE',  ( -1.000000000000000000, 1.161518853562087414E-16, 0.0000000000000000000 ) ) ;
#94 = CARTESIAN_POINT ( 'NONE',  ( 3.000000000000002665, 1.613292832658430598E-13, -1.387778780781445676E-14 ) ) ;
#95 = CARTESIAN_POINT ( 'NONE',  ( 2.914230647672874042E-15, -5.000000000000020428, -4.911804920760125093 ) ) ;
#96 = LINE ( 'NONE', #373, #24 ) ;
#97 = VECTOR ( 'NONE', #75, 1000.000000000000227 ) ;
#98 = ORIENTED_EDGE ( 'NONE', *, *, #54, .F. ) ;
#99 = CARTESIAN_POINT ( 'NONE',  ( 3.000000000000003109, -5.000000000000000000, 2.560824265498177030E-14 ) ) ;
#100 = DIRECTION ( 'NONE',  ( -1.000000000000000000, 0.0000000000000000000, 0.0000000000000000000 ) ) ;
#101 = EDGE_CURVE ( 'NONE', #3, #62, #275, .T. ) ;
#102 = DIRECTION ( 'NONE',  ( 0.0000000000000000000, 1.000000000000000000, 0.0000000000000000000 ) ) ;
#103 = VECTOR ( 'NONE', #164, 1000.000000000000000 ) ;
#104 = DIRECTION ( 'NONE',  ( 0.7071067811865463515, 0.7071067811865486830, 0.0000000000000000000 ) ) ;
#105 = MANIFOLD_SOLID_BREP ( 'Spiegeln1', #33 ) ;
#106 = ORIENTED_EDGE ( 'NONE', *, *, #127, .T. ) ;
#107 = VECTOR ( 'NONE', #222, 1000.000000000000000 ) ;
#108 = VECTOR ( 'NONE', #389, 1000.000000000000000 ) ;
#109 = ORIENTED_EDGE ( 'NONE', *, *, #181, .F. ) ;
#110 = VECTOR ( 'NONE', #267, 1000.000000000000000 ) ;
#111 = CARTESIAN_POINT ( 'NONE',  ( 2.449293598294706513E-15, -5.000000000000000000, -19.05000000000000071 ) ) ;
#112 = EDGE_LOOP ( 'NONE', ( #229, #210, #393, #365 ) ) ;
#113 = EDGE_CURVE ( 'NONE', #300, #278, #351, .T. ) ;
#114 = VERTEX_POINT ( 'NONE', #133 ) ;
#115 = ORIENTED_EDGE ( 'NONE', *, *, #317, .F. ) ;
#116 = ORIENTED_EDGE ( 'NONE', *, *, #332, .F. ) ;
#117 = CARTESIAN_POINT ( 'NONE',  ( 18.50000000000000355, -5.000000000000000000, -19.05000000000000071 ) ) ;
#118 = AXIS2_PLACEMENT_3D ( 'NONE', #284, #46, #377 ) ;
#119 = LINE ( 'NONE', #94, #319 ) ;
#120 = LINE ( 'NONE', #175, #243 ) ;
#121 = LINE ( 'NONE', #337, #103 ) ;
#122 = CARTESIAN_POINT ( 'NONE',  ( 3.469446951953614189E-15, 1.613292832658430598E-13, -1.387778780781445676E-14 ) ) ;
#123 =( NAMED_UNIT ( * ) PLANE_ANGLE_UNIT ( ) SI_UNIT ( $, .RADIAN. ) );
#124 = VERTEX_POINT ( 'NONE', #95 ) ;
#125 = VERTEX_POINT ( 'NONE', #165 ) ;
#126 = PLANE ( 'NONE',  #230 ) ;
#127 = EDGE_CURVE ( 'NONE', #298, #143, #121, .T. ) ;
#128 = DIRECTION ( 'NONE',  ( 0.7071067811865463515, 0.7071067811865487940, 0.0000000000000000000 ) ) ;
#129 = VERTEX_POINT ( 'NONE', #168 ) ;
#130 = ORIENTED_EDGE ( 'NONE', *, *, #332, .T. ) ;
#131 = PRESENTATION_STYLE_ASSIGNMENT (( #82 ) ) ;
#132 = EDGE_LOOP ( 'NONE', ( #73, #29, #50, #299, #346, #34, #273, #361, #98 ) ) ;
#133 = CARTESIAN_POINT ( 'NONE',  ( 7.286648454926751965E-16, -19.05000000000000071, -19.05000000000000071 ) ) ;
#134 = SURFACE_SIDE_STYLE ('',( #232 ) ) ;
#135 = CARTESIAN_POINT ( 'NONE',  ( 125.0000000000000000, 0.0000000000000000000, 0.0000000000000000000 ) ) ;
#136 = EDGE_LOOP ( 'NONE', ( #51, #238, #76, #399, #72, #398, #297 ) ) ;
#137 = ORIENTED_EDGE ( 'NONE', *, *, #324, .T. ) ;
#138 = VERTEX_POINT ( 'NONE', #189 ) ;
#139 = EDGE_LOOP ( 'NONE', ( #207, #360, #233, #106 ) ) ;
#140 = AXIS2_PLACEMENT_3D ( 'NONE', #314, #102, #302 ) ;
#141 = LINE ( 'NONE', #183, #55 ) ;
#142 = VECTOR ( 'NONE', #161, 1000.000000000000000 ) ;
#143 = VERTEX_POINT ( 'NONE', #174 ) ;
#144 = ORIENTED_EDGE ( 'NONE', *, *, #78, .T. ) ;
#145 = VECTOR ( 'NONE', #86, 1000.000000000000000 ) ;
#146 = CYLINDRICAL_SURFACE ( 'NONE', #18, 4.000000000000000000 ) ;
#147 = LINE ( 'NONE', #305, #283 ) ;
#148 = DIRECTION ( 'NONE',  ( 0.0000000000000000000, 0.0000000000000000000, -1.000000000000000000 ) ) ;
#149 = ADVANCED_FACE ( 'NONE', ( #221 ), #355, .T. ) ;
#150 = VECTOR ( 'NONE', #79, 1000.000000000000000 ) ;
#151 = VECTOR ( 'NONE', #128, 999.9999999999998863 ) ;
#152 = CARTESIAN_POINT ( 'NONE',  ( 3.000000000000002665, 1.613292832658430598E-13, -1.387778780781445676E-14 ) ) ;
#153 = FACE_OUTER_BOUND ( 'NONE', #289, .T. ) ;
#154 = DIRECTION ( 'NONE',  ( 0.0000000000000000000, 0.0000000000000000000, -1.000000000000000000 ) ) ;
#155 = VERTEX_POINT ( 'NONE', #203 ) ;
#156 = DIRECTION ( 'NONE',  ( -0.0000000000000000000, -0.0000000000000000000, -1.000000000000000000 ) ) ;
#157 = VECTOR ( 'NONE', #396, 1000.000000000000000 ) ;
#158 = CARTESIAN_POINT ( 'NONE',  ( 16.84314575050761675, -1.000000000000000888, -19.05000000000000071 ) ) ;
#159 =( LENGTH_UNIT ( ) NAMED_UNIT ( * ) SI_UNIT ( .MILLI., .METRE. ) );
#160 = VECTOR ( 'NONE', #341, 1000.000000000000000 ) ;
#161 = DIRECTION ( 'NONE',  ( 1.000000000000000000, 0.0000000000000000000, 0.0000000000000000000 ) ) ;
#162 = ADVANCED_FACE ( 'NONE', ( #153 ), #281, .T. ) ;
#163 = DIRECTION ( 'NONE',  ( 1.000000000000000000, -1.161518853562087414E-16, 0.0000000000000000000 ) ) ;
#164 = DIRECTION ( 'NONE',  ( 0.0000000000000000000, 0.0000000000000000000, 1.000000000000000000 ) ) ;
#165 = CARTESIAN_POINT ( 'NONE',  ( 3.000000000000002665, 1.613292832658430598E-13, -1.387778780781445676E-14 ) ) ;
#166 = APPLICATION_PROTOCOL_DEFINITION ( 'draft international standard', 'automotive_design', 1998, #263 ) ;
#167 = UNCERTAINTY_MEASURE_WITH_UNIT (LENGTH_MEASURE( 1.000000000000000082E-05 ), #225, 'distance_accuracy_value', 'NONE');
#168 = CARTESIAN_POINT ( 'NONE',  ( 3.469446951953614189E-15, 1.613292832658430598E-13, -1.387778780781445676E-14 ) ) ;
#169 = COLOUR_RGB ( '',0.9372549019607843146, 0.9607843137254902244, 1.000000000000000000 ) ;
#170 = PLANE ( 'NONE',  #391 ) ;
#171 = CARTESIAN_POINT ( 'NONE',  ( 7.286648454926751965E-16, -19.05000000000000071, -19.05000000000000071 ) ) ;
#172 = LINE ( 'NONE', #171, #83 ) ;
#173 = DIRECTION ( 'NONE',  ( 0.0000000000000000000, 0.0000000000000000000, 1.000000000000000000 ) ) ;
#174 = CARTESIAN_POINT ( 'NONE',  ( 125.0000000000000000, -19.05000000000000071, 0.0000000000000000000 ) ) ;
#175 = CARTESIAN_POINT ( 'NONE',  ( 125.0000000000000000, 0.0000000000000000000, -19.05000000000000071 ) ) ;
#176 = DIRECTION ( 'NONE',  ( 0.7071067811865463515, 0.7071067811865487940, 0.0000000000000000000 ) ) ;
#177 = DIRECTION ( 'NONE',  ( 0.0000000000000000000, 0.0000000000000000000, 1.000000000000000000 ) ) ;
#178 = LINE ( 'NONE', #122, #97 ) ;
#179 = PRESENTATION_STYLE_ASSIGNMENT (( #20 ) ) ;
#180 = LINE ( 'NONE', #42, #90 ) ;
#181 = EDGE_CURVE ( 'NONE', #155, #331, #147, .T. ) ;
#182 = VECTOR ( 'NONE', #353, 1000.000000000000000 ) ;
#183 = CARTESIAN_POINT ( 'NONE',  ( 3.000000000000002665, -0.2199113894877525177, -1.564750842369094785 ) ) ;
#184 = AXIS2_PLACEMENT_3D ( 'NONE', #43, #45, #339 ) ;
#185 = UNCERTAINTY_MEASURE_WITH_UNIT (LENGTH_MEASURE( 1.000000000000000082E-05 ), #188, 'distance_accuracy_value', 'NONE');
#186 = CARTESIAN_POINT ( 'NONE',  ( 3.000000000000002665, -8.445896366636842956, 5.551115123125782702E-14 ) ) ;
#187 = EDGE_CURVE ( 'NONE', #138, #143, #265, .T. ) ;
#188 =( LENGTH_UNIT ( ) NAMED_UNIT ( * ) SI_UNIT ( .MILLI., .METRE. ) );
#189 = CARTESIAN_POINT ( 'NONE',  ( 7.286648454926751965E-16, -19.05000000000000071, 0.0000000000000000000 ) ) ;
#190 = FACE_OUTER_BOUND ( 'NONE', #136, .T. ) ;
#191 = ADVANCED_FACE ( 'NONE', ( #190 ), #170, .F. ) ;
#192 = LINE ( 'NONE', #198, #142 ) ;
#193 = ADVANCED_FACE ( 'NONE', ( #252 ), #146, .F. ) ;
#194 = AXIS2_PLACEMENT_3D ( 'NONE', #266, #163, #362 ) ;
#195 = AXIS2_PLACEMENT_3D ( 'NONE', #199, #371, #369 ) ;
#196 = ORIENTED_EDGE ( 'NONE', *, *, #92, .F. ) ;
#197 =( NAMED_UNIT ( * ) SI_UNIT ( $, .STERADIAN. ) SOLID_ANGLE_UNIT ( ) );
#198 = CARTESIAN_POINT ( 'NONE',  ( 2.449293598294706513E-15, -5.000000000000000000, -19.05000000000000071 ) ) ;
#199 = CARTESIAN_POINT ( 'NONE',  ( 125.0000000000000000, -25.00000000000000000, -19.05000000000000071 ) ) ;
#200 = LINE ( 'NONE', #117, #151 ) ;
#201 = ORIENTED_EDGE ( 'NONE', *, *, #181, .T. ) ;
#202 = PRODUCT_CONTEXT ( 'NONE', #345, 'mechanical' ) ;
#203 = CARTESIAN_POINT ( 'NONE',  ( 23.49999999999998579, 0.0000000000000000000, -19.05000000000000071 ) ) ;
#204 = PLANE ( 'NONE',  #352 ) ;
#205 = FACE_OUTER_BOUND ( 'NONE', #254, .T. ) ;
#206 = VECTOR ( 'NONE', #295, 1000.000000000000114 ) ;
#207 = ORIENTED_EDGE ( 'NONE', *, *, #187, .F. ) ;
#208 = CARTESIAN_POINT ( 'NONE',  ( 19.67157287525381193, -3.828427124746186738, -19.05000000000000071 ) ) ;
#209 = FACE_OUTER_BOUND ( 'NONE', #1, .T. ) ;
#210 = ORIENTED_EDGE ( 'NONE', *, *, #113, .T. ) ;
#211 = EDGE_CURVE ( 'NONE', #77, #143, #338, .T. ) ;
#212 = FILL_AREA_STYLE ('',( #239 ) ) ;
#213 = FACE_OUTER_BOUND ( 'NONE', #132, .T. ) ;
#214 = FACE_OUTER_BOUND ( 'NONE', #290, .T. ) ;
#215 = PLANE ( 'NONE',  #184 ) ;
#216 = ORIENTED_EDGE ( 'NONE', *, *, #101, .F. ) ;
#217 = PLANE ( 'NONE',  #274 ) ;
#218 = ORIENTED_EDGE ( 'NONE', *, *, #317, .T. ) ;
#219 = CARTESIAN_POINT ( 'NONE',  ( 3.469446951953614189E-15, -0.2199113894877525177, -1.564750842369094785 ) ) ;
#220 = VECTOR ( 'NONE', #356, 1000.000000000000000 ) ;
#221 = FACE_OUTER_BOUND ( 'NONE', #248, .T. ) ;
#222 = DIRECTION ( 'NONE',  ( 1.000000000000000000, 0.0000000000000000000, 0.0000000000000000000 ) ) ;
#223 = EDGE_CURVE ( 'NONE', #331, #77, #31, .T. ) ;
#224 = DIRECTION ( 'NONE',  ( 1.150215031923841474E-16, 0.9902680687415621463, -0.1391731009601240299 ) ) ;
#225 =( LENGTH_UNIT ( ) NAMED_UNIT ( * ) SI_UNIT ( .MILLI., .METRE. ) );
#226 = DIRECTION ( 'NONE',  ( 0.0000000000000000000, 0.0000000000000000000, 1.000000000000000000 ) ) ;
#227 = VERTEX_POINT ( 'NONE', #99 ) ;
#228 = CARTESIAN_POINT ( 'NONE',  ( 16.84314575050761675, -5.000000000000000000, 0.0000000000000000000 ) ) ;
#229 = ORIENTED_EDGE ( 'NONE', *, *, #89, .T. ) ;
#230 = AXIS2_PLACEMENT_3D ( 'NONE', #387, #374, #104 ) ;
#231 = CARTESIAN_POINT ( 'NONE',  ( 0.0000000000000000000, 0.0000000000000000000, 0.0000000000000000000 ) ) ;
#232 = SURFACE_STYLE_FILL_AREA ( #375 ) ;
#233 = ORIENTED_EDGE ( 'NONE', *, *, #376, .T. ) ;
#234 = PRODUCT_DEFINITION_CONTEXT ( 'detailed design', #263, 'design' ) ;
#235 = LINE ( 'NONE', #219, #206 ) ;
#236 = UNCERTAINTY_MEASURE_WITH_UNIT (LENGTH_MEASURE( 1.000000000000000082E-05 ), #159, 'distance_accuracy_value', 'NONE');
#237 = EDGE_CURVE ( 'NONE', #227, #278, #364, .T. ) ;
#238 = ORIENTED_EDGE ( 'NONE', *, *, #30, .T. ) ;
#239 = FILL_AREA_STYLE_COLOUR ( '', #10 ) ;
#240 = EDGE_CURVE ( 'NONE', #125, #227, #52, .T. ) ;
#241 = VERTEX_POINT ( 'NONE', #44 ) ;
#242 = LINE ( 'NONE', #261, #145 ) ;
#243 = VECTOR ( 'NONE', #68, 1000.000000000000000 ) ;
#244 = AXIS2_PLACEMENT_3D ( 'NONE', #158, #156, #253 ) ;
#245 = DIRECTION ( 'NONE',  ( 9.514605433755934095E-17, 0.8191520442889946851, 0.5735764363510417185 ) ) ;
#246 = ORIENTED_EDGE ( 'NONE', *, *, #211, .T. ) ;
#247 = ORIENTED_EDGE ( 'NONE', *, *, #292, .F. ) ;
#248 = EDGE_LOOP ( 'NONE', ( #249, #137, #313, #56 ) ) ;
#249 = ORIENTED_EDGE ( 'NONE', *, *, #78, .F. ) ;
#250 = FACE_OUTER_BOUND ( 'NONE', #139, .T. ) ;
#251 = LINE ( 'NONE', #258, #91 ) ;
#252 = FACE_OUTER_BOUND ( 'NONE', #112, .T. ) ;
#253 = DIRECTION ( 'NONE',  ( 1.000000000000000000, 0.0000000000000000000, 0.0000000000000000000 ) ) ;
#254 = EDGE_LOOP ( 'NONE', ( #115, #144, #25, #260, #309, #6 ) ) ;
#255 =( GEOMETRIC_REPRESENTATION_CONTEXT ( 3 ) GLOBAL_UNCERTAINTY_ASSIGNED_CONTEXT ( ( #167 ) ) GLOBAL_UNIT_ASSIGNED_CONTEXT ( ( #225, #123, #318 ) ) REPRESENTATION_CONTEXT ( 'NONE', 'WORKASPACE' ) );
#256 = EDGE_LOOP ( 'NONE', ( #85, #109, #392, #40 ) ) ;
#257 = ADVANCED_FACE ( 'NONE', ( #357 ), #19, .T. ) ;
#258 = CARTESIAN_POINT ( 'NONE',  ( 3.000000000000002665, 1.613292832658430598E-13, -1.387778780781445676E-14 ) ) ;
#259 = VECTOR ( 'NONE', #177, 1000.000000000000000 ) ;
#260 = ORIENTED_EDGE ( 'NONE', *, *, #113, .F. ) ;
#261 = CARTESIAN_POINT ( 'NONE',  ( 3.469446951953614189E-15, -8.445896366636842956, 5.551115123125782702E-14 ) ) ;
#262 = CARTESIAN_POINT ( 'NONE',  ( 3.000000000000002665, -0.2199113894877525177, -1.564750842369094785 ) ) ;
#263 = APPLICATION_CONTEXT ( 'automotive_design' ) ;
#264 = PLANE ( 'NONE',  #118 ) ;
#265 = LINE ( 'NONE', #394, #220 ) ;
#266 = CARTESIAN_POINT ( 'NONE',  ( 3.000000000000002665, -7.499999999999902300, -2.999999999999954259 ) ) ;
#267 = DIRECTION ( 'NONE',  ( 1.000000000000000000, 0.0000000000000000000, 0.0000000000000000000 ) ) ;
#268 = DIRECTION ( 'NONE',  ( 1.000000000000000000, 0.0000000000000000000, 0.0000000000000000000 ) ) ;
#269 = ADVANCED_FACE ( 'NONE', ( #214 ), #264, .T. ) ;
#270 = EDGE_CURVE ( 'NONE', #62, #129, #178, .T. ) ;
#271 = DIRECTION ( 'NONE',  ( 1.007946507735138592E-30, 8.677831656748562794E-15, 1.000000000000000000 ) ) ;
#272 = LINE ( 'NONE', #397, #182 ) ;
#273 = ORIENTED_EDGE ( 'NONE', *, *, #223, .F. ) ;
#274 = AXIS2_PLACEMENT_3D ( 'NONE', #330, #354, #148 ) ;
#275 = LINE ( 'NONE', #262, #308 ) ;
#276 = CARTESIAN_POINT ( 'NONE',  ( 7.286648454926751965E-16, -19.05000000000000071, -19.05000000000000071 ) ) ;
#277 = VERTEX_POINT ( 'NONE', #311 ) ;
#278 = VERTEX_POINT ( 'NONE', #228 ) ;
#279 = ORIENTED_EDGE ( 'NONE', *, *, #307, .T. ) ;
#280 = CARTESIAN_POINT ( 'NONE',  ( 3.000000000000002665, -8.445896366636842956, 5.551115123125782702E-14 ) ) ;
#281 = PLANE ( 'NONE',  #195 ) ;
#282 =( GEOMETRIC_REPRESENTATION_CONTEXT ( 3 ) GLOBAL_UNCERTAINTY_ASSIGNED_CONTEXT ( ( #236 ) ) GLOBAL_UNIT_ASSIGNED_CONTEXT ( ( #159, #60, #197 ) ) REPRESENTATION_CONTEXT ( 'NONE', 'WORKASPACE' ) );
#283 = VECTOR ( 'NONE', #291, 1000.000000000000000 ) ;
#284 = CARTESIAN_POINT ( 'NONE',  ( 3.000000000000002665, -0.2199113894877525177, -1.564750842369094785 ) ) ;
#285 = ADVANCED_FACE ( 'NONE', ( #65 ), #323, .T. ) ;
#286 = AXIS2_PLACEMENT_3D ( 'NONE', #280, #271, #379 ) ;
#287 = CARTESIAN_POINT ( 'NONE',  ( 3.000000000000002665, -0.2199113894877525177, -1.564750842369094785 ) ) ;
#288 = ORIENTED_EDGE ( 'NONE', *, *, #329, .F. ) ;
#289 = EDGE_LOOP ( 'NONE', ( #378, #288, #130, #246 ) ) ;
#290 = EDGE_LOOP ( 'NONE', ( #218, #38, #216, #15 ) ) ;
#291 = DIRECTION ( 'NONE',  ( 0.0000000000000000000, 0.0000000000000000000, 1.000000000000000000 ) ) ;
#292 = EDGE_CURVE ( 'NONE', #125, #129, #251, .T. ) ;
#293 = MECHANICAL_DESIGN_GEOMETRIC_PRESENTATION_REPRESENTATION (  '', ( #303 ), #282 ) ;
#294 = DIRECTION ( 'NONE',  ( 1.616521806738838867E-17, 0.1391731009601240021, 0.9902680687415620353 ) ) ;
#295 = DIRECTION ( 'NONE',  ( 9.514605433755934095E-17, 0.8191520442889946851, 0.5735764363510417185 ) ) ;
#296 = EDGE_LOOP ( 'NONE', ( #368, #116, #35, #201 ) ) ;
#297 = ORIENTED_EDGE ( 'NONE', *, *, #315, .T. ) ;
#298 = VERTEX_POINT ( 'NONE', #350 ) ;
#299 = ORIENTED_EDGE ( 'NONE', *, *, #74, .T. ) ;
#300 = VERTEX_POINT ( 'NONE', #67 ) ;
#301 = SURFACE_SIDE_STYLE ('',( #4 ) ) ;
#302 = DIRECTION ( 'NONE',  ( 0.0000000000000000000, 0.0000000000000000000, -1.000000000000000000 ) ) ;
#303 = STYLED_ITEM ( 'NONE', ( #179 ), #105 ) ;
#304 = ADVANCED_FACE ( 'NONE', ( #209 ), #215, .F. ) ;
#305 = CARTESIAN_POINT ( 'NONE',  ( 23.49999999999998579, 0.0000000000000000000, -19.05000000000000071 ) ) ;
#306 = DIRECTION ( 'NONE',  ( 0.0000000000000000000, 0.0000000000000000000, 1.000000000000000000 ) ) ;
#307 = EDGE_CURVE ( 'NONE', #114, #138, #26, .T. ) ;
#308 = VECTOR ( 'NONE', #93, 1000.000000000000000 ) ;
#309 = ORIENTED_EDGE ( 'NONE', *, *, #315, .F. ) ;
#310 = CIRCLE ( 'NONE', #244, 4.000000000000000000 ) ;
#311 = CARTESIAN_POINT ( 'NONE',  ( 2.999999999999999556, -5.000000000000021316, -4.911804920760110882 ) ) ;
#312 = APPLICATION_PROTOCOL_DEFINITION ( 'draft international standard', 'automotive_design', 1998, #345 ) ;
#313 = ORIENTED_EDGE ( 'NONE', *, *, #92, .T. ) ;
#314 = CARTESIAN_POINT ( 'NONE',  ( 23.49999999999998579, 0.0000000000000000000, -19.05000000000000071 ) ) ;
#315 = EDGE_CURVE ( 'NONE', #16, #300, #192, .T. ) ;
#316 = STYLED_ITEM ( 'NONE', ( #131 ), #322 ) ;
#317 = EDGE_CURVE ( 'NONE', #277, #124, #7, .T. ) ;
#318 =( NAMED_UNIT ( * ) SI_UNIT ( $, .STERADIAN. ) SOLID_ANGLE_UNIT ( ) );
#319 = VECTOR ( 'NONE', #13, 1000.000000000000227 ) ;
#320 = ORIENTED_EDGE ( 'NONE', *, *, #28, .F. ) ;
#321 = CARTESIAN_POINT ( 'NONE',  ( 3.000000000000002220, -5.000000000000022204, -4.911804920760125981 ) ) ;
#322 = ADVANCED_BREP_SHAPE_REPRESENTATION ( 'CUT-153-02-06', ( #105, #11 ), #255 ) ;
#323 = PLANE ( 'NONE',  #140 ) ;
#324 = EDGE_CURVE ( 'NONE', #277, #3, #141, .T. ) ;
#325 = VERTEX_POINT ( 'NONE', #385 ) ;
#326 = CARTESIAN_POINT ( 'NONE',  ( 16.84314575050761675, -1.000000000000000888, 0.0000000000000000000 ) ) ;
#327 = DIRECTION ( 'NONE',  ( 0.0000000000000000000, 1.000000000000000000, 0.0000000000000000000 ) ) ;
#328 = EDGE_LOOP ( 'NONE', ( #21, #247, #196, #386 ) ) ;
#329 = EDGE_CURVE ( 'NONE', #241, #298, #70, .T. ) ;
#330 = CARTESIAN_POINT ( 'NONE',  ( 2.449293598294706513E-15, -5.000000000000000000, -19.05000000000000071 ) ) ;
#331 = VERTEX_POINT ( 'NONE', #69 ) ;
#332 = EDGE_CURVE ( 'NONE', #241, #77, #120, .T. ) ;
#333 = PRESENTATION_LAYER_ASSIGNMENT (  '', '', ( #316 ) ) ;
#334 = DIRECTION ( 'NONE',  ( 0.0000000000000000000, 0.0000000000000000000, 1.000000000000000000 ) ) ;
#335 = CARTESIAN_POINT ( 'NONE',  ( 16.84314575050761675, -5.000000000000000000, 0.0000000000000000000 ) ) ;
#336 = SHAPE_DEFINITION_REPRESENTATION ( #36, #322 ) ;
#337 = CARTESIAN_POINT ( 'NONE',  ( 125.0000000000000000, -19.05000000000000071, -19.05000000000000071 ) ) ;
#338 = LINE ( 'NONE', #390, #160 ) ;
#339 = DIRECTION ( 'NONE',  ( 1.161518853562087414E-16, 1.000000000000000000, -2.721450164542462693E-15 ) ) ;
#340 = ORIENTED_EDGE ( 'NONE', *, *, #270, .F. ) ;
#341 = DIRECTION ( 'NONE',  ( 0.0000000000000000000, -1.000000000000000000, 0.0000000000000000000 ) ) ;
#342 = EDGE_CURVE ( 'NONE', #16, #124, #180, .T. ) ;
#343 = ADVANCED_FACE ( 'NONE', ( #47 ), #126, .T. ) ;
#344 = VECTOR ( 'NONE', #306, 1000.000000000000000 ) ;
#345 = APPLICATION_CONTEXT ( 'automotive_design' ) ;
#346 = ORIENTED_EDGE ( 'NONE', *, *, #187, .T. ) ;
#347 = ORIENTED_EDGE ( 'NONE', *, *, #14, .F. ) ;
#348 = MECHANICAL_DESIGN_GEOMETRIC_PRESENTATION_REPRESENTATION (  '', ( #316 ), #370 ) ;
#349 = VERTEX_POINT ( 'NONE', #400 ) ;
#350 = CARTESIAN_POINT ( 'NONE',  ( 125.0000000000000000, -19.05000000000000071, -19.05000000000000071 ) ) ;
#351 = LINE ( 'NONE', #335, #259 ) ;
#352 = AXIS2_PLACEMENT_3D ( 'NONE', #359, #327, #58 ) ;
#353 = DIRECTION ( 'NONE',  ( 1.224646799147353207E-16, 1.000000000000000000, 0.0000000000000000000 ) ) ;
#354 = DIRECTION ( 'NONE',  ( 0.0000000000000000000, 1.000000000000000000, 0.0000000000000000000 ) ) ;
#355 = PLANE ( 'NONE',  #194 ) ;
#356 = DIRECTION ( 'NONE',  ( 1.000000000000000000, 0.0000000000000000000, 0.0000000000000000000 ) ) ;
#357 = FACE_OUTER_BOUND ( 'NONE', #328, .T. ) ;
#358 = AXIS2_PLACEMENT_3D ( 'NONE', #326, #226, #27 ) ;
#359 = CARTESIAN_POINT ( 'NONE',  ( 7.286648454926751965E-16, -19.05000000000000071, -19.05000000000000071 ) ) ;
#360 = ORIENTED_EDGE ( 'NONE', *, *, #307, .F. ) ;
#361 = ORIENTED_EDGE ( 'NONE', *, *, #37, .F. ) ;
#362 = DIRECTION ( 'NONE',  ( 1.161518853562087414E-16, 1.000000000000000000, -2.721450164542462693E-15 ) ) ;
#363 =( NAMED_UNIT ( * ) PLANE_ANGLE_UNIT ( ) SI_UNIT ( $, .RADIAN. ) );
#364 = LINE ( 'NONE', #401, #107 ) ;
#365 = ORIENTED_EDGE ( 'NONE', *, *, #372, .T. ) ;
#366 = DIRECTION ( 'NONE',  ( 1.000000000000000000, 0.0000000000000000000, 0.0000000000000000000 ) ) ;
#367 = CARTESIAN_POINT ( 'NONE',  ( 0.0000000000000000000, 0.0000000000000000000, -19.05000000000000071 ) ) ;
#368 = ORIENTED_EDGE ( 'NONE', *, *, #223, .T. ) ;
#369 = DIRECTION ( 'NONE',  ( 0.0000000000000000000, -0.0000000000000000000, -1.000000000000000000 ) ) ;
#370 =( GEOMETRIC_REPRESENTATION_CONTEXT ( 3 ) GLOBAL_UNCERTAINTY_ASSIGNED_CONTEXT ( ( #185 ) ) GLOBAL_UNIT_ASSIGNED_CONTEXT ( ( #188, #363, #2 ) ) REPRESENTATION_CONTEXT ( 'NONE', 'WORKASPACE' ) );
#371 = DIRECTION ( 'NONE',  ( 1.000000000000000000, 0.0000000000000000000, 0.0000000000000000000 ) ) ;
#372 = EDGE_CURVE ( 'NONE', #349, #325, #84, .T. ) ;
#373 = CARTESIAN_POINT ( 'NONE',  ( 18.50000000000000355, -5.000000000000000000, 0.0000000000000000000 ) ) ;
#374 = DIRECTION ( 'NONE',  ( -0.7071067811865486830, 0.7071067811865463515, 0.0000000000000000000 ) ) ;
#375 = FILL_AREA_STYLE ('',( #382 ) ) ;
#376 = EDGE_CURVE ( 'NONE', #114, #298, #172, .T. ) ;
#377 = DIRECTION ( 'NONE',  ( 9.514605433755934095E-17, 0.8191520442889946851, 0.5735764363510417185 ) ) ;
#378 = ORIENTED_EDGE ( 'NONE', *, *, #127, .F. ) ;
#379 = DIRECTION ( 'NONE',  ( -1.161518853562087414E-16, -1.000000000000000000, 8.677831656748562794E-15 ) ) ;
#380 = PRODUCT ( 'CUT-153-02-06', 'CUT-153-02-06', '', ( #202 ) ) ;
#381 = DIRECTION ( 'NONE',  ( 0.0000000000000000000, 0.0000000000000000000, 1.000000000000000000 ) ) ;
#382 = FILL_AREA_STYLE_COLOUR ( '', #169 ) ;
#383 = DIRECTION ( 'NONE',  ( 0.0000000000000000000, 0.0000000000000000000, 1.000000000000000000 ) ) ;
#384 = CARTESIAN_POINT ( 'NONE',  ( 3.469446951953614189E-15, -0.2199113894877525177, -1.564750842369094785 ) ) ;
#385 = CARTESIAN_POINT ( 'NONE',  ( 19.67157287525381193, -3.828427124746186738, -19.05000000000000071 ) ) ;
#386 = ORIENTED_EDGE ( 'NONE', *, *, #101, .T. ) ;
#387 = CARTESIAN_POINT ( 'NONE',  ( 18.50000000000000355, -5.000000000000000000, -19.05000000000000071 ) ) ;
#388 = ADVANCED_FACE ( 'NONE', ( #205 ), #217, .T. ) ;
#389 = DIRECTION ( 'NONE',  ( -0.0000000000000000000, -0.0000000000000000000, -1.000000000000000000 ) ) ;
#390 = CARTESIAN_POINT ( 'NONE',  ( 125.0000000000000000, -25.00000000000000000, 0.0000000000000000000 ) ) ;
#391 = AXIS2_PLACEMENT_3D ( 'NONE', #367, #383, #41 ) ;
#392 = ORIENTED_EDGE ( 'NONE', *, *, #30, .F. ) ;
#393 = ORIENTED_EDGE ( 'NONE', *, *, #54, .T. ) ;
#394 = CARTESIAN_POINT ( 'NONE',  ( 7.286648454926751965E-16, -19.05000000000000071, 0.0000000000000000000 ) ) ;
#395 = VECTOR ( 'NONE', #22, 1000.000000000000000 ) ;
#396 = DIRECTION ( 'NONE',  ( 1.000000000000000000, 0.0000000000000000000, 0.0000000000000000000 ) ) ;
#397 = CARTESIAN_POINT ( 'NONE',  ( 0.0000000000000000000, -25.00000000000000000, -19.05000000000000071 ) ) ;
#398 = ORIENTED_EDGE ( 'NONE', *, *, #28, .T. ) ;
#399 = ORIENTED_EDGE ( 'NONE', *, *, #329, .T. ) ;
#400 = CARTESIAN_POINT ( 'NONE',  ( 19.67157287525381193, -3.828427124746186738, 0.0000000000000000000 ) ) ;
#401 = CARTESIAN_POINT ( 'NONE',  ( 2.449293598294706513E-15, -5.000000000000000000, 0.0000000000000000000 ) ) ;
#402 = ORIENTED_EDGE ( 'NONE', *, *, #342, .F. ) ;
ENDSEC;
END-ISO-10303-21;
