ISO-10303-21;
HEADER;
FILE_DESCRIPTION (( 'STEP AP214' ),
    '1' );
FILE_NAME ('CUT-153-02-07.step',
    '2019-06-05T11:20:21',
    ( '' ),
    ( '' ),
    'SwSTEP 2.0',
    'SolidWorks 2018',
    '' );
FILE_SCHEMA (( 'AUTOMOTIVE_DESIGN' ));
ENDSEC;

DATA;
#1 = CARTESIAN_POINT ( 'NONE',  ( 125.0000000000000000, 25.00000000000000000, -20.00000000000000000 ) ) ;
#2 = FACE_OUTER_BOUND ( 'NONE', #172, .T. ) ;
#3 = COLOUR_RGB ( '',0.9372549019607843146, 0.9607843137254902244, 1.000000000000000000 ) ;
#4 = LINE ( 'NONE', #1, #312 ) ;
#5 = VERTEX_POINT ( 'NONE', #64 ) ;
#6 = PLANE ( 'NONE',  #397 ) ;
#7 = ORIENTED_EDGE ( 'NONE', *, *, #18, .T. ) ;
#8 =( NAMED_UNIT ( * ) SI_UNIT ( $, .STERADIAN. ) SOLID_ANGLE_UNIT ( ) );
#9 = ORIENTED_EDGE ( 'NONE', *, *, #73, .T. ) ;
#10 = DIRECTION ( 'NONE',  ( 1.000000000000000000, 0.0000000000000000000, 0.0000000000000000000 ) ) ;
#11 = ORIENTED_EDGE ( 'NONE', *, *, #21, .T. ) ;
#12 = PRODUCT ( 'CUT-153-02-07', 'CUT-153-02-07', '', ( #324 ) ) ;
#13 = FACE_OUTER_BOUND ( 'NONE', #27, .T. ) ;
#14 = ORIENTED_EDGE ( 'NONE', *, *, #178, .T. ) ;
#15 = ADVANCED_FACE ( 'NONE', ( #386 ), #87, .F. ) ;
#16 = DIRECTION ( 'NONE',  ( 9.514605433755934095E-17, -0.8191520442889946851, 0.5735764363510417185 ) ) ;
#17 = ADVANCED_FACE ( 'NONE', ( #13 ), #75, .T. ) ;
#18 = EDGE_CURVE ( 'NONE', #209, #134, #325, .T. ) ;
#19 = CARTESIAN_POINT ( 'NONE',  ( 125.0000000000000000, 20.00000000000000000, -20.00000000000000000 ) ) ;
#20 = ORIENTED_EDGE ( 'NONE', *, *, #268, .F. ) ;
#21 = EDGE_CURVE ( 'NONE', #42, #131, #314, .T. ) ;
#22 =( NAMED_UNIT ( * ) PLANE_ANGLE_UNIT ( ) SI_UNIT ( $, .RADIAN. ) );
#23 = DIRECTION ( 'NONE',  ( 9.514605433755934095E-17, -0.8191520442889946851, 0.5735764363510417185 ) ) ;
#24 =( LENGTH_UNIT ( ) NAMED_UNIT ( * ) SI_UNIT ( .MILLI., .METRE. ) );
#25 = ADVANCED_FACE ( 'NONE', ( #317 ), #351, .F. ) ;
#26 = ORIENTED_EDGE ( 'NONE', *, *, #181, .T. ) ;
#27 = EDGE_LOOP ( 'NONE', ( #148, #327, #303, #187 ) ) ;
#28 = VERTEX_POINT ( 'NONE', #253 ) ;
#29 = VECTOR ( 'NONE', #80, 1000.000000000000227 ) ;
#30 = VECTOR ( 'NONE', #263, 1000.000000000000000 ) ;
#31 = CYLINDRICAL_SURFACE ( 'NONE', #249, 6.000000000000000000 ) ;
#32 = CARTESIAN_POINT ( 'NONE',  ( 23.49999999999998579, 0.0000000000000000000, 0.0000000000000000000 ) ) ;
#33 = VERTEX_POINT ( 'NONE', #393 ) ;
#34 = ORIENTED_EDGE ( 'NONE', *, *, #357, .T. ) ;
#35 = ORIENTED_EDGE ( 'NONE', *, *, #330, .F. ) ;
#36 = EDGE_CURVE ( 'NONE', #242, #297, #295, .T. ) ;
#37 = DIRECTION ( 'NONE',  ( 1.150215031923841474E-16, -0.9902680687415621463, -0.1391731009601240299 ) ) ;
#38 = VECTOR ( 'NONE', #147, 1000.000000000000000 ) ;
#39 = LINE ( 'NONE', #49, #169 ) ;
#40 = ORIENTED_EDGE ( 'NONE', *, *, #300, .F. ) ;
#41 = EDGE_CURVE ( 'NONE', #377, #5, #206, .T. ) ;
#42 = VERTEX_POINT ( 'NONE', #331 ) ;
#43 = DIRECTION ( 'NONE',  ( 0.0000000000000000000, -1.000000000000000000, 0.0000000000000000000 ) ) ;
#44 = EDGE_CURVE ( 'NONE', #262, #392, #272, .T. ) ;
#45 = PLANE ( 'NONE',  #352 ) ;
#46 = ADVANCED_FACE ( 'NONE', ( #218 ), #110, .T. ) ;
#47 = VERTEX_POINT ( 'NONE', #244 ) ;
#48 = EDGE_LOOP ( 'NONE', ( #361, #122, #9, #11, #370, #320 ) ) ;
#49 = CARTESIAN_POINT ( 'NONE',  ( 3.000000000000002220, 5.000000000000016875, -4.911804920760122428 ) ) ;
#50 = ORIENTED_EDGE ( 'NONE', *, *, #221, .F. ) ;
#51 = CARTESIAN_POINT ( 'NONE',  ( 2.449293598294706513E-15, 5.000000000000000000, -20.00000000000000000 ) ) ;
#52 = PRESENTATION_LAYER_ASSIGNMENT (  '', '', ( #91 ) ) ;
#53 = DIRECTION ( 'NONE',  ( 1.000000000000000000, 0.0000000000000000000, 0.0000000000000000000 ) ) ;
#54 = AXIS2_PLACEMENT_3D ( 'NONE', #69, #395, #214 ) ;
#55 = ORIENTED_EDGE ( 'NONE', *, *, #394, .T. ) ;
#56 = APPLICATION_CONTEXT ( 'automotive_design' ) ;
#57 = FACE_OUTER_BOUND ( 'NONE', #58, .T. ) ;
#58 = EDGE_LOOP ( 'NONE', ( #156, #376, #108, #121 ) ) ;
#59 = FILL_AREA_STYLE ('',( #205 ) ) ;
#60 = DIRECTION ( 'NONE',  ( 0.0000000000000000000, -0.0000000000000000000, -1.000000000000000000 ) ) ;
#61 = ADVANCED_BREP_SHAPE_REPRESENTATION ( 'CUT-153-02-07', ( #287, #316 ), #238 ) ;
#62 = ADVANCED_FACE ( 'NONE', ( #119 ), #45, .T. ) ;
#63 = EDGE_CURVE ( 'NONE', #47, #262, #388, .T. ) ;
#64 = CARTESIAN_POINT ( 'NONE',  ( 3.469446951953614189E-15, -1.613292832658430598E-13, -1.387778780781445676E-14 ) ) ;
#65 = ORIENTED_EDGE ( 'NONE', *, *, #293, .T. ) ;
#66 = EDGE_LOOP ( 'NONE', ( #360, #90, #279, #387 ) ) ;
#67 = CARTESIAN_POINT ( 'NONE',  ( 18.50000000000000355, 5.000000000000000000, 0.0000000000000000000 ) ) ;
#68 = ORIENTED_EDGE ( 'NONE', *, *, #319, .T. ) ;
#69 = CARTESIAN_POINT ( 'NONE',  ( 16.01471862576142868, -1.000000000000000000, -20.00000000000000000 ) ) ;
#70 = VECTOR ( 'NONE', #10, 1000.000000000000000 ) ;
#71 = VECTOR ( 'NONE', #269, 1000.000000000000000 ) ;
#72 = LINE ( 'NONE', #356, #196 ) ;
#73 = EDGE_CURVE ( 'NONE', #270, #42, #281, .T. ) ;
#74 = CARTESIAN_POINT ( 'NONE',  ( 3.000000000000002665, -1.613292832658430598E-13, -1.387778780781445676E-14 ) ) ;
#75 = PLANE ( 'NONE',  #302 ) ;
#76 = FACE_OUTER_BOUND ( 'NONE', #66, .T. ) ;
#77 = ORIENTED_EDGE ( 'NONE', *, *, #347, .F. ) ;
#78 = DIRECTION ( 'NONE',  ( 0.0000000000000000000, -0.0000000000000000000, -1.000000000000000000 ) ) ;
#79 = STYLED_ITEM ( 'NONE', ( #197 ), #287 ) ;
#80 = DIRECTION ( 'NONE',  ( 1.616521806738838559E-17, -0.1391731009601240021, 0.9902680687415620353 ) ) ;
#81 = ORIENTED_EDGE ( 'NONE', *, *, #373, .T. ) ;
#82 = EDGE_CURVE ( 'NONE', #235, #131, #96, .T. ) ;
#83 = FILL_AREA_STYLE ('',( #368 ) ) ;
#84 = PRESENTATION_STYLE_ASSIGNMENT (( #144 ) ) ;
#85 = CARTESIAN_POINT ( 'NONE',  ( 125.0000000000000000, 0.0000000000000000000, -20.00000000000000000 ) ) ;
#86 = ORIENTED_EDGE ( 'NONE', *, *, #373, .F. ) ;
#87 = PLANE ( 'NONE',  #94 ) ;
#88 = CARTESIAN_POINT ( 'NONE',  ( 2.449293598294706513E-15, 5.000000000000000000, -20.00000000000000000 ) ) ;
#89 =( GEOMETRIC_REPRESENTATION_CONTEXT ( 3 ) GLOBAL_UNCERTAINTY_ASSIGNED_CONTEXT ( ( #337 ) ) GLOBAL_UNIT_ASSIGNED_CONTEXT ( ( #379, #332, #109 ) ) REPRESENTATION_CONTEXT ( 'NONE', 'WORKASPACE' ) );
#90 = ORIENTED_EDGE ( 'NONE', *, *, #265, .F. ) ;
#91 = STYLED_ITEM ( 'NONE', ( #84 ), #61 ) ;
#92 = DIRECTION ( 'NONE',  ( 0.7071067811865463515, -0.7071067811865487940, 0.0000000000000000000 ) ) ;
#93 = LINE ( 'NONE', #204, #98 ) ;
#94 = AXIS2_PLACEMENT_3D ( 'NONE', #274, #226, #102 ) ;
#95 = CARTESIAN_POINT ( 'NONE',  ( 0.0000000000000000000, 0.0000000000000000000, -20.00000000000000000 ) ) ;
#96 = LINE ( 'NONE', #237, #38 ) ;
#97 = FACE_OUTER_BOUND ( 'NONE', #189, .T. ) ;
#98 = VECTOR ( 'NONE', #166, 1000.000000000000000 ) ;
#99 = AXIS2_PLACEMENT_3D ( 'NONE', #234, #136, #142 ) ;
#100 = DIRECTION ( 'NONE',  ( 1.000000000000000000, 1.161518853562087414E-16, 0.0000000000000000000 ) ) ;
#101 = DIRECTION ( 'NONE',  ( 1.616521806738838559E-17, -0.1391731009601240021, 0.9902680687415620353 ) ) ;
#102 = DIRECTION ( 'NONE',  ( 1.161518853562087414E-16, -1.000000000000000000, -2.721450164542462693E-15 ) ) ;
#103 = CARTESIAN_POINT ( 'NONE',  ( 16.01471862576142868, -1.000000000000000000, 0.0000000000000000000 ) ) ;
#104 = CARTESIAN_POINT ( 'NONE',  ( 23.49999999999998579, 0.0000000000000000000, 0.0000000000000000000 ) ) ;
#105 = VECTOR ( 'NONE', #292, 1000.000000000000000 ) ;
#106 = CARTESIAN_POINT ( 'NONE',  ( 18.50000000000000355, 5.000000000000000000, -20.00000000000000000 ) ) ;
#107 = CARTESIAN_POINT ( 'NONE',  ( 3.000000000000002665, 8.445896366636842956, 5.551115123125782702E-14 ) ) ;
#108 = ORIENTED_EDGE ( 'NONE', *, *, #154, .F. ) ;
#109 =( NAMED_UNIT ( * ) SI_UNIT ( $, .STERADIAN. ) SOLID_ANGLE_UNIT ( ) );
#110 = PLANE ( 'NONE',  #155 ) ;
#111 = CARTESIAN_POINT ( 'NONE',  ( 18.50000000000000355, 5.000000000000000000, -20.00000000000000000 ) ) ;
#112 = CARTESIAN_POINT ( 'NONE',  ( 23.49999999999998579, 0.0000000000000000000, -20.00000000000000000 ) ) ;
#113 = ORIENTED_EDGE ( 'NONE', *, *, #154, .T. ) ;
#114 = ORIENTED_EDGE ( 'NONE', *, *, #41, .T. ) ;
#115 = PLANE ( 'NONE',  #140 ) ;
#116 = SURFACE_STYLE_USAGE ( .BOTH. , #290 ) ;
#117 = EDGE_LOOP ( 'NONE', ( #161, #113, #34, #399, #213, #309, #288, #186, #348 ) ) ;
#118 = PLANE ( 'NONE',  #375 ) ;
#119 = FACE_OUTER_BOUND ( 'NONE', #338, .T. ) ;
#120 = EDGE_CURVE ( 'NONE', #377, #235, #259, .T. ) ;
#121 = ORIENTED_EDGE ( 'NONE', *, *, #21, .F. ) ;
#122 = ORIENTED_EDGE ( 'NONE', *, *, #181, .F. ) ;
#123 = PRODUCT_DEFINITION_SHAPE ( 'NONE', 'NONE',  #183 ) ;
#124 = CARTESIAN_POINT ( 'NONE',  ( 3.000000000000002665, 8.445896366636842956, 5.551115123125782702E-14 ) ) ;
#125 = VECTOR ( 'NONE', #101, 1000.000000000000227 ) ;
#126 = CARTESIAN_POINT ( 'NONE',  ( 2.449293598294706513E-15, 5.000000000000000000, -20.00000000000000000 ) ) ;
#127 = DIRECTION ( 'NONE',  ( 1.000000000000000000, 0.0000000000000000000, 0.0000000000000000000 ) ) ;
#128 = ORIENTED_EDGE ( 'NONE', *, *, #300, .T. ) ;
#129 = DIRECTION ( 'NONE',  ( 0.7071067811865463515, -0.7071067811865487940, 0.0000000000000000000 ) ) ;
#130 = VECTOR ( 'NONE', #385, 1000.000000000000000 ) ;
#131 = VERTEX_POINT ( 'NONE', #227 ) ;
#132 = ORIENTED_EDGE ( 'NONE', *, *, #277, .T. ) ;
#133 = DIRECTION ( 'NONE',  ( -1.161518853562087414E-16, 1.000000000000000000, 8.677831656748562794E-15 ) ) ;
#134 = VERTEX_POINT ( 'NONE', #203 ) ;
#135 = DIRECTION ( 'NONE',  ( -1.000000000000000000, -1.161518853562087414E-16, 1.232595164407830125E-32 ) ) ;
#136 = DIRECTION ( 'NONE',  ( 0.0000000000000000000, -1.000000000000000000, 0.0000000000000000000 ) ) ;
#137 = ORIENTED_EDGE ( 'NONE', *, *, #36, .F. ) ;
#138 = DIRECTION ( 'NONE',  ( 1.000000000000000000, 0.0000000000000000000, 0.0000000000000000000 ) ) ;
#139 = DIRECTION ( 'NONE',  ( 1.000000000000000000, 0.0000000000000000000, 0.0000000000000000000 ) ) ;
#140 = AXIS2_PLACEMENT_3D ( 'NONE', #95, #149, #138 ) ;
#141 = VECTOR ( 'NONE', #239, 1000.000000000000000 ) ;
#142 = DIRECTION ( 'NONE',  ( 0.0000000000000000000, -0.0000000000000000000, -1.000000000000000000 ) ) ;
#143 = LINE ( 'NONE', #225, #334 ) ;
#144 = SURFACE_STYLE_USAGE ( .BOTH. , #369 ) ;
#145 = DIRECTION ( 'NONE',  ( 1.000000000000000000, 0.0000000000000000000, 0.0000000000000000000 ) ) ;
#146 = DIRECTION ( 'NONE',  ( -1.000000000000000000, 0.0000000000000000000, 0.0000000000000000000 ) ) ;
#147 = DIRECTION ( 'NONE',  ( 1.000000000000000000, 0.0000000000000000000, 0.0000000000000000000 ) ) ;
#148 = ORIENTED_EDGE ( 'NONE', *, *, #357, .F. ) ;
#149 = DIRECTION ( 'NONE',  ( -0.0000000000000000000, 0.0000000000000000000, 1.000000000000000000 ) ) ;
#150 = CARTESIAN_POINT ( 'NONE',  ( 125.0000000000000000, 20.00000000000000000, -20.00000000000000000 ) ) ;
#151 = FACE_OUTER_BOUND ( 'NONE', #195, .T. ) ;
#152 = LINE ( 'NONE', #67, #251 ) ;
#153 = APPLICATION_CONTEXT ( 'automotive_design' ) ;
#154 = EDGE_CURVE ( 'NONE', #131, #28, #163, .T. ) ;
#155 = AXIS2_PLACEMENT_3D ( 'NONE', #107, #217, #133 ) ;
#156 = ORIENTED_EDGE ( 'NONE', *, *, #293, .F. ) ;
#157 = CARTESIAN_POINT ( 'NONE',  ( 125.0000000000000000, 25.00000000000000000, 0.0000000000000000000 ) ) ;
#158 = LINE ( 'NONE', #106, #254 ) ;
#159 = CARTESIAN_POINT ( 'NONE',  ( 6.123233995736767268E-16, 20.00000000000000000, -20.00000000000000000 ) ) ;
#160 = ORIENTED_EDGE ( 'NONE', *, *, #228, .T. ) ;
#161 = ORIENTED_EDGE ( 'NONE', *, *, #82, .T. ) ;
#162 = DIRECTION ( 'NONE',  ( -0.0000000000000000000, -0.0000000000000000000, 1.000000000000000000 ) ) ;
#163 = CIRCLE ( 'NONE', #215, 6.000000000000001776 ) ;
#164 = AXIS2_PLACEMENT_3D ( 'NONE', #243, #219, #78 ) ;
#165 = CARTESIAN_POINT ( 'NONE',  ( 3.469446951953614189E-15, 8.445896366636842956, 5.551115123125782702E-14 ) ) ;
#166 = DIRECTION ( 'NONE',  ( -1.000000000000000000, -1.161518853562087414E-16, 0.0000000000000000000 ) ) ;
#167 = EDGE_LOOP ( 'NONE', ( #55, #137, #35, #7 ) ) ;
#168 = CARTESIAN_POINT ( 'NONE',  ( 125.0000000000000000, 25.00000000000000000, -20.00000000000000000 ) ) ;
#169 = VECTOR ( 'NONE', #135, 1000.000000000000000 ) ;
#170 = SURFACE_STYLE_FILL_AREA ( #83 ) ;
#171 = EDGE_CURVE ( 'NONE', #5, #134, #229, .T. ) ;
#172 = EDGE_LOOP ( 'NONE', ( #40, #77, #68, #114 ) ) ;
#173 = ORIENTED_EDGE ( 'NONE', *, *, #18, .F. ) ;
#174 = MECHANICAL_DESIGN_GEOMETRIC_PRESENTATION_REPRESENTATION (  '', ( #91 ), #89 ) ;
#175 = DIRECTION ( 'NONE',  ( 1.000000000000000000, -9.035018104045866996E-16, 0.0000000000000000000 ) ) ;
#176 = CARTESIAN_POINT ( 'NONE',  ( 0.0000000000000000000, 25.00000000000000000, -20.00000000000000000 ) ) ;
#177 = CIRCLE ( 'NONE', #54, 6.000000000000001776 ) ;
#178 = EDGE_CURVE ( 'NONE', #33, #235, #340, .T. ) ;
#179 = LINE ( 'NONE', #308, #310 ) ;
#180 = LINE ( 'NONE', #157, #105 ) ;
#181 = EDGE_CURVE ( 'NONE', #270, #349, #326, .T. ) ;
#182 = ORIENTED_EDGE ( 'NONE', *, *, #228, .F. ) ;
#183 = PRODUCT_DEFINITION ( 'UNKNOWN', '', #240, #294 ) ;
#184 = ORIENTED_EDGE ( 'NONE', *, *, #322, .F. ) ;
#185 = CARTESIAN_POINT ( 'NONE',  ( 2.914230647672876409E-15, 5.000000000000000888, -4.911804920760110882 ) ) ;
#186 = ORIENTED_EDGE ( 'NONE', *, *, #41, .F. ) ;
#187 = ORIENTED_EDGE ( 'NONE', *, *, #221, .T. ) ;
#188 = CARTESIAN_POINT ( 'NONE',  ( 20.25735931288071967, 3.242640687119276333, -20.00000000000000000 ) ) ;
#189 = EDGE_LOOP ( 'NONE', ( #210, #50, #246, #364 ) ) ;
#190 = EDGE_LOOP ( 'NONE', ( #233, #173, #132, #26, #81, #128 ) ) ;
#191 = UNCERTAINTY_MEASURE_WITH_UNIT (LENGTH_MEASURE( 1.000000000000000082E-05 ), #24, 'distance_accuracy_value', 'NONE');
#192 = PRODUCT_RELATED_PRODUCT_CATEGORY ( 'part', '', ( #12 ) ) ;
#193 = FACE_OUTER_BOUND ( 'NONE', #48, .T. ) ;
#194 = CARTESIAN_POINT ( 'NONE',  ( 125.0000000000000000, 20.00000000000000000, 0.0000000000000000000 ) ) ;
#195 = EDGE_LOOP ( 'NONE', ( #14, #284, #307, #182 ) ) ;
#196 = VECTOR ( 'NONE', #23, 1000.000000000000114 ) ;
#197 = PRESENTATION_STYLE_ASSIGNMENT (( #116 ) ) ;
#198 = PLANE ( 'NONE',  #164 ) ;
#199 = DIRECTION ( 'NONE',  ( 9.514605433755934095E-17, -0.8191520442889946851, 0.5735764363510417185 ) ) ;
#200 = CARTESIAN_POINT ( 'NONE',  ( 3.000000000000002665, -1.613292832658430598E-13, -1.387778780781445676E-14 ) ) ;
#201 = EDGE_LOOP ( 'NONE', ( #65, #232, #283, #273, #184, #315, #20 ) ) ;
#202 = PRESENTATION_LAYER_ASSIGNMENT (  '', '', ( #79 ) ) ;
#203 = CARTESIAN_POINT ( 'NONE',  ( 6.123233995736767268E-16, 20.00000000000000000, 0.0000000000000000000 ) ) ;
#204 = CARTESIAN_POINT ( 'NONE',  ( 3.000000000000002665, 0.2199113894877525177, -1.564750842369094785 ) ) ;
#205 = FILL_AREA_STYLE_COLOUR ( '', #3 ) ;
#206 = LINE ( 'NONE', #275, #346 ) ;
#207 = CARTESIAN_POINT ( 'NONE',  ( 3.000000000000002665, -1.613292832658430598E-13, -1.387778780781445676E-14 ) ) ;
#208 = MECHANICAL_DESIGN_GEOMETRIC_PRESENTATION_REPRESENTATION (  '', ( #79 ), #230 ) ;
#209 = VERTEX_POINT ( 'NONE', #212 ) ;
#210 = ORIENTED_EDGE ( 'NONE', *, *, #289, .F. ) ;
#211 = DIRECTION ( 'NONE',  ( 0.0000000000000000000, 0.0000000000000000000, 1.000000000000000000 ) ) ;
#212 = CARTESIAN_POINT ( 'NONE',  ( 6.123233995736767268E-16, 20.00000000000000000, -20.00000000000000000 ) ) ;
#213 = ORIENTED_EDGE ( 'NONE', *, *, #265, .T. ) ;
#214 = DIRECTION ( 'NONE',  ( 1.000000000000000000, 0.0000000000000000000, 0.0000000000000000000 ) ) ;
#215 = AXIS2_PLACEMENT_3D ( 'NONE', #103, #266, #175 ) ;
#216 = CARTESIAN_POINT ( 'NONE',  ( 3.000000000000002665, 0.2199113894877525177, -1.564750842369094785 ) ) ;
#217 = DIRECTION ( 'NONE',  ( 1.007946507735138592E-30, -8.677831656748562794E-15, 1.000000000000000000 ) ) ;
#218 = FACE_OUTER_BOUND ( 'NONE', #117, .T. ) ;
#219 = DIRECTION ( 'NONE',  ( 0.0000000000000000000, -1.000000000000000000, 0.0000000000000000000 ) ) ;
#220 = DIRECTION ( 'NONE',  ( -1.161518853562087414E-16, 1.000000000000000000, 8.677831656748562794E-15 ) ) ;
#221 = EDGE_CURVE ( 'NONE', #47, #353, #179, .T. ) ;
#222 = CARTESIAN_POINT ( 'NONE',  ( 3.000000000000003109, 5.000000000000000000, 2.560824265498177030E-14 ) ) ;
#223 = VECTOR ( 'NONE', #145, 1000.000000000000000 ) ;
#224 = SHAPE_DEFINITION_REPRESENTATION ( #123, #61 ) ;
#225 = CARTESIAN_POINT ( 'NONE',  ( 6.123233995736767268E-16, 20.00000000000000000, 0.0000000000000000000 ) ) ;
#226 = DIRECTION ( 'NONE',  ( 1.000000000000000000, 1.161518853562087414E-16, 0.0000000000000000000 ) ) ;
#227 = CARTESIAN_POINT ( 'NONE',  ( 16.01471862576142868, 5.000000000000000000, 0.0000000000000000000 ) ) ;
#228 = EDGE_CURVE ( 'NONE', #33, #342, #72, .T. ) ;
#229 = LINE ( 'NONE', #165, #130 ) ;
#230 =( GEOMETRIC_REPRESENTATION_CONTEXT ( 3 ) GLOBAL_UNCERTAINTY_ASSIGNED_CONTEXT ( ( #191 ) ) GLOBAL_UNIT_ASSIGNED_CONTEXT ( ( #24, #247, #285 ) ) REPRESENTATION_CONTEXT ( 'NONE', 'WORKASPACE' ) );
#231 = DIRECTION ( 'NONE',  ( -0.0000000000000000000, -0.0000000000000000000, 1.000000000000000000 ) ) ;
#232 = ORIENTED_EDGE ( 'NONE', *, *, #73, .F. ) ;
#233 = ORIENTED_EDGE ( 'NONE', *, *, #171, .T. ) ;
#234 = CARTESIAN_POINT ( 'NONE',  ( 6.123233995736767268E-16, 20.00000000000000000, -20.00000000000000000 ) ) ;
#235 = VERTEX_POINT ( 'NONE', #222 ) ;
#236 = ORIENTED_EDGE ( 'NONE', *, *, #271, .F. ) ;
#237 = CARTESIAN_POINT ( 'NONE',  ( 2.449293598294706513E-15, 5.000000000000000000, 0.0000000000000000000 ) ) ;
#238 =( GEOMETRIC_REPRESENTATION_CONTEXT ( 3 ) GLOBAL_UNCERTAINTY_ASSIGNED_CONTEXT ( ( #318 ) ) GLOBAL_UNIT_ASSIGNED_CONTEXT ( ( #329, #22, #8 ) ) REPRESENTATION_CONTEXT ( 'NONE', 'WORKASPACE' ) );
#239 = DIRECTION ( 'NONE',  ( 0.0000000000000000000, 0.0000000000000000000, 1.000000000000000000 ) ) ;
#240 = PRODUCT_DEFINITION_FORMATION_WITH_SPECIFIED_SOURCE ( 'ANY', '', #12, .NOT_KNOWN. ) ;
#241 = ADVANCED_FACE ( 'NONE', ( #2 ), #118, .T. ) ;
#242 = VERTEX_POINT ( 'NONE', #19 ) ;
#243 = CARTESIAN_POINT ( 'NONE',  ( 2.449293598294706513E-15, 5.000000000000000000, -20.00000000000000000 ) ) ;
#244 = CARTESIAN_POINT ( 'NONE',  ( 23.49999999999998579, 0.0000000000000000000, -20.00000000000000000 ) ) ;
#245 = DIRECTION ( 'NONE',  ( 0.0000000000000000000, 0.0000000000000000000, 1.000000000000000000 ) ) ;
#246 = ORIENTED_EDGE ( 'NONE', *, *, #63, .T. ) ;
#247 =( NAMED_UNIT ( * ) PLANE_ANGLE_UNIT ( ) SI_UNIT ( $, .RADIAN. ) );
#248 = CARTESIAN_POINT ( 'NONE',  ( 3.000000000000002665, 7.499999999999902300, -2.999999999999954259 ) ) ;
#249 = AXIS2_PLACEMENT_3D ( 'NONE', #382, #252, #146 ) ;
#250 = LINE ( 'NONE', #374, #29 ) ;
#251 = VECTOR ( 'NONE', #264, 999.9999999999998863 ) ;
#252 = DIRECTION ( 'NONE',  ( 0.0000000000000000000, 0.0000000000000000000, -1.000000000000000000 ) ) ;
#253 = CARTESIAN_POINT ( 'NONE',  ( 20.25735931288071967, 3.242640687119276333, 0.0000000000000000000 ) ) ;
#254 = VECTOR ( 'NONE', #92, 999.9999999999998863 ) ;
#255 = DIRECTION ( 'NONE',  ( 1.616521806738838867E-17, -0.1391731009601240021, 0.9902680687415620353 ) ) ;
#256 = EDGE_CURVE ( 'NONE', #28, #366, #282, .T. ) ;
#257 = CARTESIAN_POINT ( 'NONE',  ( 0.0000000000000000000, 0.0000000000000000000, 0.0000000000000000000 ) ) ;
#258 = VECTOR ( 'NONE', #162, 1000.000000000000000 ) ;
#259 = LINE ( 'NONE', #124, #339 ) ;
#260 = APPLICATION_PROTOCOL_DEFINITION ( 'draft international standard', 'automotive_design', 1998, #153 ) ;
#261 = ADVANCED_FACE ( 'NONE', ( #97 ), #6, .T. ) ;
#262 = VERTEX_POINT ( 'NONE', #85 ) ;
#263 = DIRECTION ( 'NONE',  ( 0.0000000000000000000, 0.0000000000000000000, 1.000000000000000000 ) ) ;
#264 = DIRECTION ( 'NONE',  ( 0.7071067811865463515, -0.7071067811865487940, 0.0000000000000000000 ) ) ;
#265 = EDGE_CURVE ( 'NONE', #392, #297, #180, .T. ) ;
#266 = DIRECTION ( 'NONE',  ( 0.0000000000000000000, -0.0000000000000000000, -1.000000000000000000 ) ) ;
#267 = LINE ( 'NONE', #280, #276 ) ;
#268 = EDGE_CURVE ( 'NONE', #366, #47, #158, .T. ) ;
#269 = DIRECTION ( 'NONE',  ( -0.0000000000000000000, -0.0000000000000000000, -1.000000000000000000 ) ) ;
#270 = VERTEX_POINT ( 'NONE', #126 ) ;
#271 = EDGE_CURVE ( 'NONE', #33, #349, #39, .T. ) ;
#272 = LINE ( 'NONE', #384, #30 ) ;
#273 = ORIENTED_EDGE ( 'NONE', *, *, #330, .T. ) ;
#274 = CARTESIAN_POINT ( 'NONE',  ( 3.469446951953614189E-15, 7.499999999999902300, -2.999999999999954259 ) ) ;
#275 = CARTESIAN_POINT ( 'NONE',  ( 3.000000000000002665, -1.613292832658430598E-13, -1.387778780781445676E-14 ) ) ;
#276 = VECTOR ( 'NONE', #16, 1000.000000000000114 ) ;
#277 = EDGE_CURVE ( 'NONE', #209, #270, #363, .T. ) ;
#278 = PLANE ( 'NONE',  #313 ) ;
#279 = ORIENTED_EDGE ( 'NONE', *, *, #44, .F. ) ;
#280 = CARTESIAN_POINT ( 'NONE',  ( 3.469446951953614189E-15, 0.2199113894877525177, -1.564750842369094785 ) ) ;
#281 = LINE ( 'NONE', #51, #367 ) ;
#282 = LINE ( 'NONE', #188, #71 ) ;
#283 = ORIENTED_EDGE ( 'NONE', *, *, #277, .F. ) ;
#284 = ORIENTED_EDGE ( 'NONE', *, *, #120, .F. ) ;
#285 =( NAMED_UNIT ( * ) SI_UNIT ( $, .STERADIAN. ) SOLID_ANGLE_UNIT ( ) );
#286 = DIRECTION ( 'NONE',  ( 0.0000000000000000000, 0.0000000000000000000, 1.000000000000000000 ) ) ;
#287 = MANIFOLD_SOLID_BREP ( 'Aufsatz-Linear austragen1', #359 ) ;
#288 = ORIENTED_EDGE ( 'NONE', *, *, #171, .F. ) ;
#289 = EDGE_CURVE ( 'NONE', #353, #392, #391, .T. ) ;
#290 = SURFACE_SIDE_STYLE ('',( #311 ) ) ;
#291 = DIRECTION ( 'NONE',  ( 1.000000000000000000, 0.0000000000000000000, -0.0000000000000000000 ) ) ;
#292 = DIRECTION ( 'NONE',  ( -0.0000000000000000000, 1.000000000000000000, -0.0000000000000000000 ) ) ;
#293 = EDGE_CURVE ( 'NONE', #366, #42, #177, .T. ) ;
#294 = PRODUCT_DEFINITION_CONTEXT ( 'detailed design', #153, 'design' ) ;
#295 = LINE ( 'NONE', #150, #258 ) ;
#296 = DIRECTION ( 'NONE',  ( -1.000000000000000000, -1.161518853562087414E-16, 0.0000000000000000000 ) ) ;
#297 = VERTEX_POINT ( 'NONE', #194 ) ;
#298 = ORIENTED_EDGE ( 'NONE', *, *, #347, .T. ) ;
#299 = VECTOR ( 'NONE', #286, 1000.000000000000000 ) ;
#300 = EDGE_CURVE ( 'NONE', #345, #5, #250, .T. ) ;
#301 = CARTESIAN_POINT ( 'NONE',  ( 16.01471862576142868, 5.000000000000000000, 0.0000000000000000000 ) ) ;
#302 = AXIS2_PLACEMENT_3D ( 'NONE', #111, #350, #129 ) ;
#303 = ORIENTED_EDGE ( 'NONE', *, *, #268, .T. ) ;
#304 = CARTESIAN_POINT ( 'NONE',  ( 2.999999999999999556, 5.000000000000021316, -5.999999999999965361 ) ) ;
#305 = CARTESIAN_POINT ( 'NONE',  ( 23.49999999999998579, 0.0000000000000000000, -20.00000000000000000 ) ) ;
#306 = ADVANCED_FACE ( 'NONE', ( #151 ), #278, .T. ) ;
#307 = ORIENTED_EDGE ( 'NONE', *, *, #319, .F. ) ;
#308 = CARTESIAN_POINT ( 'NONE',  ( 23.49999999999998579, 0.0000000000000000000, -20.00000000000000000 ) ) ;
#309 = ORIENTED_EDGE ( 'NONE', *, *, #394, .F. ) ;
#310 = VECTOR ( 'NONE', #245, 1000.000000000000000 ) ;
#311 = SURFACE_STYLE_FILL_AREA ( #59 ) ;
#312 = VECTOR ( 'NONE', #335, 1000.000000000000000 ) ;
#313 = AXIS2_PLACEMENT_3D ( 'NONE', #248, #100, #321 ) ;
#314 = LINE ( 'NONE', #301, #299 ) ;
#315 = ORIENTED_EDGE ( 'NONE', *, *, #63, .F. ) ;
#316 = AXIS2_PLACEMENT_3D ( 'NONE', #257, #211, #127 ) ;
#317 = FACE_OUTER_BOUND ( 'NONE', #167, .T. ) ;
#318 = UNCERTAINTY_MEASURE_WITH_UNIT (LENGTH_MEASURE( 1.000000000000000082E-05 ), #329, 'distance_accuracy_value', 'NONE');
#319 = EDGE_CURVE ( 'NONE', #342, #377, #333, .T. ) ;
#320 = ORIENTED_EDGE ( 'NONE', *, *, #178, .F. ) ;
#321 = DIRECTION ( 'NONE',  ( 1.161518853562087414E-16, -1.000000000000000000, -2.721450164542462693E-15 ) ) ;
#322 = EDGE_CURVE ( 'NONE', #262, #242, #4, .T. ) ;
#323 = PLANE ( 'NONE',  #390 ) ;
#324 = PRODUCT_CONTEXT ( 'NONE', #56, 'mechanical' ) ;
#325 = LINE ( 'NONE', #159, #362 ) ;
#326 = LINE ( 'NONE', #88, #389 ) ;
#327 = ORIENTED_EDGE ( 'NONE', *, *, #256, .T. ) ;
#328 = DIRECTION ( 'NONE',  ( 1.224646799147353207E-16, -1.000000000000000000, 0.0000000000000000000 ) ) ;
#329 =( LENGTH_UNIT ( ) NAMED_UNIT ( * ) SI_UNIT ( .MILLI., .METRE. ) );
#330 = EDGE_CURVE ( 'NONE', #209, #242, #336, .T. ) ;
#331 = CARTESIAN_POINT ( 'NONE',  ( 16.01471862576142868, 5.000000000000000000, -20.00000000000000000 ) ) ;
#332 =( NAMED_UNIT ( * ) PLANE_ANGLE_UNIT ( ) SI_UNIT ( $, .RADIAN. ) );
#333 = LINE ( 'NONE', #207, #125 ) ;
#334 = VECTOR ( 'NONE', #139, 1000.000000000000000 ) ;
#335 = DIRECTION ( 'NONE',  ( -0.0000000000000000000, 1.000000000000000000, -0.0000000000000000000 ) ) ;
#336 = LINE ( 'NONE', #372, #383 ) ;
#337 = UNCERTAINTY_MEASURE_WITH_UNIT (LENGTH_MEASURE( 1.000000000000000082E-05 ), #379, 'distance_accuracy_value', 'NONE');
#338 = EDGE_LOOP ( 'NONE', ( #236, #160, #298, #86 ) ) ;
#339 = VECTOR ( 'NONE', #220, 1000.000000000000000 ) ;
#340 = LINE ( 'NONE', #304, #141 ) ;
#341 = VECTOR ( 'NONE', #328, 1000.000000000000000 ) ;
#342 = VERTEX_POINT ( 'NONE', #402 ) ;
#343 = ADVANCED_FACE ( 'NONE', ( #193 ), #198, .T. ) ;
#344 = CARTESIAN_POINT ( 'NONE',  ( 20.25735931288071967, 3.242640687119276333, -20.00000000000000000 ) ) ;
#345 = VERTEX_POINT ( 'NONE', #396 ) ;
#346 = VECTOR ( 'NONE', #296, 1000.000000000000000 ) ;
#347 = EDGE_CURVE ( 'NONE', #342, #345, #93, .T. ) ;
#348 = ORIENTED_EDGE ( 'NONE', *, *, #120, .T. ) ;
#349 = VERTEX_POINT ( 'NONE', #185 ) ;
#350 = DIRECTION ( 'NONE',  ( -0.7071067811865487940, -0.7071067811865463515, 0.0000000000000000000 ) ) ;
#351 = PLANE ( 'NONE',  #99 ) ;
#352 = AXIS2_PLACEMENT_3D ( 'NONE', #216, #354, #199 ) ;
#353 = VERTEX_POINT ( 'NONE', #104 ) ;
#354 = DIRECTION ( 'NONE',  ( 6.662198447806896522E-17, -0.5735764363510418296, -0.8191520442889947962 ) ) ;
#355 = FACE_OUTER_BOUND ( 'NONE', #201, .T. ) ;
#356 = CARTESIAN_POINT ( 'NONE',  ( 3.000000000000002665, 0.2199113894877525177, -1.564750842369094785 ) ) ;
#357 = EDGE_CURVE ( 'NONE', #28, #353, #152, .T. ) ;
#358 = DIRECTION ( 'NONE',  ( -0.0000000000000000000, 0.0000000000000000000, -1.000000000000000000 ) ) ;
#359 = CLOSED_SHELL ( 'NONE', ( #15, #46, #241, #62, #306, #401, #261, #17, #343, #400, #380, #25 ) ) ;
#360 = ORIENTED_EDGE ( 'NONE', *, *, #36, .T. ) ;
#361 = ORIENTED_EDGE ( 'NONE', *, *, #271, .T. ) ;
#362 = VECTOR ( 'NONE', #231, 1000.000000000000000 ) ;
#363 = LINE ( 'NONE', #176, #341 ) ;
#364 = ORIENTED_EDGE ( 'NONE', *, *, #44, .T. ) ;
#365 = DIRECTION ( 'NONE',  ( 0.0000000000000000000, 0.0000000000000000000, 1.000000000000000000 ) ) ;
#366 = VERTEX_POINT ( 'NONE', #344 ) ;
#367 = VECTOR ( 'NONE', #371, 1000.000000000000000 ) ;
#368 = FILL_AREA_STYLE_COLOUR ( '', #378 ) ;
#369 = SURFACE_SIDE_STYLE ('',( #170 ) ) ;
#370 = ORIENTED_EDGE ( 'NONE', *, *, #82, .F. ) ;
#371 = DIRECTION ( 'NONE',  ( 1.000000000000000000, 0.0000000000000000000, 0.0000000000000000000 ) ) ;
#372 = CARTESIAN_POINT ( 'NONE',  ( 6.123233995736767268E-16, 20.00000000000000000, -20.00000000000000000 ) ) ;
#373 = EDGE_CURVE ( 'NONE', #349, #345, #267, .T. ) ;
#374 = CARTESIAN_POINT ( 'NONE',  ( 3.469446951953614189E-15, -1.613292832658430598E-13, -1.387778780781445676E-14 ) ) ;
#375 = AXIS2_PLACEMENT_3D ( 'NONE', #200, #37, #255 ) ;
#376 = ORIENTED_EDGE ( 'NONE', *, *, #256, .F. ) ;
#377 = VERTEX_POINT ( 'NONE', #74 ) ;
#378 = COLOUR_RGB ( '',0.9372549019607843146, 0.9607843137254902244, 1.000000000000000000 ) ;
#379 =( LENGTH_UNIT ( ) NAMED_UNIT ( * ) SI_UNIT ( .MILLI., .METRE. ) );
#380 = ADVANCED_FACE ( 'NONE', ( #57 ), #31, .F. ) ;
#381 = CARTESIAN_POINT ( 'NONE',  ( 125.0000000000000000, 0.0000000000000000000, 0.0000000000000000000 ) ) ;
#382 = CARTESIAN_POINT ( 'NONE',  ( 16.01471862576142868, -1.000000000000000000, -20.00000000000000000 ) ) ;
#383 = VECTOR ( 'NONE', #53, 1000.000000000000000 ) ;
#384 = CARTESIAN_POINT ( 'NONE',  ( 125.0000000000000000, 0.0000000000000000000, -20.00000000000000000 ) ) ;
#385 = DIRECTION ( 'NONE',  ( -1.161518853562087414E-16, 1.000000000000000000, 8.677831656748562794E-15 ) ) ;
#386 = FACE_OUTER_BOUND ( 'NONE', #190, .T. ) ;
#387 = ORIENTED_EDGE ( 'NONE', *, *, #322, .T. ) ;
#388 = LINE ( 'NONE', #112, #70 ) ;
#389 = VECTOR ( 'NONE', #365, 1000.000000000000000 ) ;
#390 = AXIS2_PLACEMENT_3D ( 'NONE', #168, #291, #358 ) ;
#391 = LINE ( 'NONE', #32, #223 ) ;
#392 = VERTEX_POINT ( 'NONE', #381 ) ;
#393 = CARTESIAN_POINT ( 'NONE',  ( 2.999999999999999556, 5.000000000000021316, -4.911804920760110882 ) ) ;
#394 = EDGE_CURVE ( 'NONE', #134, #297, #143, .T. ) ;
#395 = DIRECTION ( 'NONE',  ( -0.0000000000000000000, 0.0000000000000000000, 1.000000000000000000 ) ) ;
#396 = CARTESIAN_POINT ( 'NONE',  ( 3.469446951953614189E-15, 0.2199113894877525177, -1.564750842369094785 ) ) ;
#397 = AXIS2_PLACEMENT_3D ( 'NONE', #305, #43, #60 ) ;
#398 = APPLICATION_PROTOCOL_DEFINITION ( 'draft international standard', 'automotive_design', 1998, #56 ) ;
#399 = ORIENTED_EDGE ( 'NONE', *, *, #289, .T. ) ;
#400 = ADVANCED_FACE ( 'NONE', ( #355 ), #115, .F. ) ;
#401 = ADVANCED_FACE ( 'NONE', ( #76 ), #323, .T. ) ;
#402 = CARTESIAN_POINT ( 'NONE',  ( 3.000000000000002665, 0.2199113894877525177, -1.564750842369094785 ) ) ;
ENDSEC;
END-ISO-10303-21;
