ISO-10303-21;
HEADER;
FILE_DESCRIPTION (( 'STEP AP214' ),
    '1' );
FILE_NAME ('CUT-822-02.step',
    '2017-06-09T12:54:06',
    ( 'e00158' ),
    ( 'Microsoft' ),
    'SwSTEP 2.0',
    'SolidWorks 2016',
    '' );
FILE_SCHEMA (( 'AUTOMOTIVE_DESIGN' ));
ENDSEC;

DATA;
#1 = VERTEX_POINT ( 'NONE', #124 ) ;
#2 = VECTOR ( 'NONE', #149, 1000.000000000000000 ) ;
#3 = FILL_AREA_STYLE_COLOUR ( '', #177 ) ;
#4 = DIRECTION ( 'NONE',  ( -1.000000000000000000, 0.0000000000000000000, 0.0000000000000000000 ) ) ;
#5 = APPLICATION_CONTEXT ( 'automotive_design' ) ;
#6 = DIRECTION ( 'NONE',  ( 0.0000000000000000000, -0.9510565162951546400, 0.3090169943749439500 ) ) ;
#7 = LINE ( 'NONE', #235, #2 ) ;
#8 = ORIENTED_EDGE ( 'NONE', *, *, #303, .T. ) ;
#9 = CARTESIAN_POINT ( 'NONE',  ( 1.224646799147363400E-017, 0.0000000000000000000, 0.0000000000000000000 ) ) ;
#10 = CARTESIAN_POINT ( 'NONE',  ( 3.000000000000000000, 2.192966475459858300, 8.362221087643396400 ) ) ;
#11 = VECTOR ( 'NONE', #335, 1000.000000000000100 ) ;
#12 = VECTOR ( 'NONE', #244, 1000.000000000000000 ) ;
#13 =( LENGTH_UNIT ( ) NAMED_UNIT ( * ) SI_UNIT ( .MILLI., .METRE. ) );
#14 = EDGE_CURVE ( 'NONE', #308, #105, #91, .T. ) ;
#15 = FACE_OUTER_BOUND ( 'NONE', #243, .T. ) ;
#16 = CARTESIAN_POINT ( 'NONE',  ( 3.000000000000000000, -2.192966475459573200, -8.362221087643396400 ) ) ;
#17 = UNCERTAINTY_MEASURE_WITH_UNIT (LENGTH_MEASURE( 1.000000000000000100E-005 ), #81, 'distance_accuracy_value', 'NONE');
#18 =( NAMED_UNIT ( * ) PLANE_ANGLE_UNIT ( ) SI_UNIT ( $, .RADIAN. ) );
#19 = VECTOR ( 'NONE', #278, 1000.000000000000000 ) ;
#20 = SURFACE_STYLE_USAGE ( .BOTH. , #250 ) ;
#21 = ADVANCED_FACE ( 'NONE', ( #60 ), #187, .F. ) ;
#22 = VECTOR ( 'NONE', #86, 1000.000000000000200 ) ;
#23 = EDGE_CURVE ( 'NONE', #52, #50, #80, .T. ) ;
#24 = CLOSED_SHELL ( 'NONE', ( #21, #46, #236, #182, #98, #129, #289, #261, #337, #185 ) ) ;
#25 = CARTESIAN_POINT ( 'NONE',  ( 0.0000000000000000000, 2.192966475459858300, 8.362221087643396400 ) ) ;
#26 = DIRECTION ( 'NONE',  ( 0.0000000000000000000, -0.9510565162951546400, 0.3090169943749439500 ) ) ;
#27 = LINE ( 'NONE', #59, #19 ) ;
#28 = AXIS2_PLACEMENT_3D ( 'NONE', #9, #130, #186 ) ;
#29 = DIRECTION ( 'NONE',  ( 1.000000000000000000, 0.0000000000000000000, 0.0000000000000000000 ) ) ;
#30 = CARTESIAN_POINT ( 'NONE',  ( 0.0000000000000000000, 0.0000000000000000000, -1.549999999999999400 ) ) ;
#31 = LINE ( 'NONE', #223, #22 ) ;
#32 = LINE ( 'NONE', #30, #42 ) ;
#33 = DIRECTION ( 'NONE',  ( 0.0000000000000000000, 1.000000000000000000, 1.917691078547849900E-016 ) ) ;
#34 = FACE_OUTER_BOUND ( 'NONE', #172, .T. ) ;
#35 = DIRECTION ( 'NONE',  ( 0.0000000000000000000, -1.917691078547851300E-016, 1.000000000000000000 ) ) ;
#36 = EDGE_CURVE ( 'NONE', #222, #207, #178, .T. ) ;
#37 = VECTOR ( 'NONE', #296, 1000.000000000000000 ) ;
#38 = DIRECTION ( 'NONE',  ( 0.0000000000000000000, -0.9510565162951546400, 0.3090169943749439500 ) ) ;
#39 = PLANE ( 'NONE',  #43 ) ;
#40 = UNCERTAINTY_MEASURE_WITH_UNIT (LENGTH_MEASURE( 1.000000000000000100E-005 ), #158, 'distance_accuracy_value', 'NONE');
#41 = LINE ( 'NONE', #165, #146 ) ;
#42 = VECTOR ( 'NONE', #94, 1000.000000000000000 ) ;
#43 = AXIS2_PLACEMENT_3D ( 'NONE', #239, #33, #342 ) ;
#44 = EDGE_CURVE ( 'NONE', #310, #188, #87, .T. ) ;
#45 = ORIENTED_EDGE ( 'NONE', *, *, #324, .T. ) ;
#46 = ADVANCED_FACE ( 'NONE', ( #184, #249 ), #328, .F. ) ;
#47 = LINE ( 'NONE', #164, #62 ) ;
#48 = CARTESIAN_POINT ( 'NONE',  ( 3.000000000000000000, -2.192966475459573200, -8.362221087643396400 ) ) ;
#49 = CARTESIAN_POINT ( 'NONE',  ( 0.0000000000000000000, -2.999999999999857900, -8.099999999999999600 ) ) ;
#50 = VERTEX_POINT ( 'NONE', #89 ) ;
#51 = AXIS2_PLACEMENT_3D ( 'NONE', #179, #154, #103 ) ;
#52 = VERTEX_POINT ( 'NONE', #323 ) ;
#53 = CIRCLE ( 'NONE', #319, 1.549999999999999200 ) ;
#54 = PLANE ( 'NONE',  #267 ) ;
#55 = ORIENTED_EDGE ( 'NONE', *, *, #305, .T. ) ;
#56 = LINE ( 'NONE', #150, #37 ) ;
#57 = CARTESIAN_POINT ( 'NONE',  ( 3.000000000000000000, 3.000000000000142600, 8.099999999999999600 ) ) ;
#58 = CARTESIAN_POINT ( 'NONE',  ( 3.000000000000000000, 0.0000000000000000000, 0.0000000000000000000 ) ) ;
#59 = CARTESIAN_POINT ( 'NONE',  ( 3.000000000000000000, 3.000000000000144300, -0.9458963666369342200 ) ) ;
#60 = FACE_OUTER_BOUND ( 'NONE', #259, .T. ) ;
#61 = EDGE_LOOP ( 'NONE', ( #111, #211, #297, #194, #277, #99 ) ) ;
#62 = VECTOR ( 'NONE', #189, 1000.000000000000000 ) ;
#63 = VECTOR ( 'NONE', #232, 1000.000000000000000 ) ;
#64 = AXIS2_PLACEMENT_3D ( 'NONE', #332, #290, #216 ) ;
#65 = CARTESIAN_POINT ( 'NONE',  ( 3.000000000000000000, 0.0000000000000000000, 0.0000000000000000000 ) ) ;
#66 = VECTOR ( 'NONE', #196, 1000.000000000000200 ) ;
#67 = LINE ( 'NONE', #320, #63 ) ;
#68 = FILL_AREA_STYLE ('',( #96 ) ) ;
#69 = ORIENTED_EDGE ( 'NONE', *, *, #293, .F. ) ;
#70 = CYLINDRICAL_SURFACE ( 'NONE', #300, 1.549999999999999400 ) ;
#71 = CIRCLE ( 'NONE', #285, 1.549999999999999200 ) ;
#72 = PLANE ( 'NONE',  #119 ) ;
#73 = DIRECTION ( 'NONE',  ( -1.000000000000000000, 0.0000000000000000000, 0.0000000000000000000 ) ) ;
#74 = CARTESIAN_POINT ( 'NONE',  ( 0.0000000000000000000, 3.000000000000144300, -0.9458963666369342200 ) ) ;
#75 = PRODUCT_DEFINITION_CONTEXT ( 'detailed design', #299, 'design' ) ;
#76 = ORIENTED_EDGE ( 'NONE', *, *, #97, .F. ) ;
#77 = DIRECTION ( 'NONE',  ( -1.000000000000000000, 0.0000000000000000000, 0.0000000000000000000 ) ) ;
#78 = DIRECTION ( 'NONE',  ( 0.0000000000000000000, -0.5735764363510438300, -0.8191520442889933500 ) ) ;
#79 = AXIS2_PLACEMENT_3D ( 'NONE', #10, #180, #107 ) ;
#80 = CIRCLE ( 'NONE', #28, 1.549999999999999600 ) ;
#81 =( LENGTH_UNIT ( ) NAMED_UNIT ( * ) SI_UNIT ( .MILLI., .METRE. ) );
#82 =( NAMED_UNIT ( * ) PLANE_ANGLE_UNIT ( ) SI_UNIT ( $, .RADIAN. ) );
#83 = DIRECTION ( 'NONE',  ( 0.0000000000000000000, 0.0000000000000000000, 1.000000000000000000 ) ) ;
#84 = VERTEX_POINT ( 'NONE', #25 ) ;
#85 = AXIS2_PLACEMENT_3D ( 'NONE', #219, #200, #214 ) ;
#86 = DIRECTION ( 'NONE',  ( 0.0000000000000000000, 0.5735764363510438300, 0.8191520442889933500 ) ) ;
#87 = LINE ( 'NONE', #57, #108 ) ;
#88 = CARTESIAN_POINT ( 'NONE',  ( 3.000000000000000000, 3.000000000000142600, 8.099999999999999600 ) ) ;
#89 = CARTESIAN_POINT ( 'NONE',  ( 1.224646799147363400E-017, -1.898202538678397200E-016, 1.549999999999999800 ) ) ;
#90 = ORIENTED_EDGE ( 'NONE', *, *, #114, .F. ) ;
#91 = LINE ( 'NONE', #141, #161 ) ;
#92 = EDGE_CURVE ( 'NONE', #188, #84, #246, .T. ) ;
#93 = EDGE_LOOP ( 'NONE', ( #275, #322, #76, #106 ) ) ;
#94 = DIRECTION ( 'NONE',  ( -1.000000000000000000, 0.0000000000000000000, 0.0000000000000000000 ) ) ;
#95 =( NAMED_UNIT ( * ) SI_UNIT ( $, .STERADIAN. ) SOLID_ANGLE_UNIT ( ) );
#96 = FILL_AREA_STYLE_COLOUR ( '', #260 ) ;
#97 = EDGE_CURVE ( 'NONE', #222, #151, #245, .T. ) ;
#98 = ADVANCED_FACE ( 'NONE', ( #197 ), #72, .F. ) ;
#99 = ORIENTED_EDGE ( 'NONE', *, *, #283, .F. ) ;
#100 = SHAPE_DEFINITION_REPRESENTATION ( #224, #242 ) ;
#101 = CARTESIAN_POINT ( 'NONE',  ( 3.000000000000000000, -2.999999999999859700, 0.9458963666369412100 ) ) ;
#102 = ORIENTED_EDGE ( 'NONE', *, *, #195, .F. ) ;
#103 = DIRECTION ( 'NONE',  ( 0.0000000000000000000, 0.0000000000000000000, -1.000000000000000000 ) ) ;
#104 = CARTESIAN_POINT ( 'NONE',  ( 3.000000000000000000, 2.192966475459858300, 8.362221087643396400 ) ) ;
#105 = VERTEX_POINT ( 'NONE', #159 ) ;
#106 = ORIENTED_EDGE ( 'NONE', *, *, #36, .T. ) ;
#107 = DIRECTION ( 'NONE',  ( 0.0000000000000000000, 0.5735764363510442700, 0.8191520442889930200 ) ) ;
#108 = VECTOR ( 'NONE', #314, 1000.000000000000000 ) ;
#109 = SURFACE_STYLE_FILL_AREA ( #148 ) ;
#110 = DIRECTION ( 'NONE',  ( -1.000000000000000000, 0.0000000000000000000, 0.0000000000000000000 ) ) ;
#111 = ORIENTED_EDGE ( 'NONE', *, *, #229, .F. ) ;
#112 = VERTEX_POINT ( 'NONE', #270 ) ;
#113 =( GEOMETRIC_REPRESENTATION_CONTEXT ( 3 ) GLOBAL_UNCERTAINTY_ASSIGNED_CONTEXT ( ( #17 ) ) GLOBAL_UNIT_ASSIGNED_CONTEXT ( ( #81, #82, #137 ) ) REPRESENTATION_CONTEXT ( 'NONE', 'WORKASPACE' ) );
#114 = EDGE_CURVE ( 'NONE', #310, #1, #168, .T. ) ;
#115 = ORIENTED_EDGE ( 'NONE', *, *, #273, .F. ) ;
#116 = ORIENTED_EDGE ( 'NONE', *, *, #117, .T. ) ;
#117 = EDGE_CURVE ( 'NONE', #339, #188, #284, .T. ) ;
#118 = ORIENTED_EDGE ( 'NONE', *, *, #331, .T. ) ;
#119 = AXIS2_PLACEMENT_3D ( 'NONE', #252, #330, #205 ) ;
#120 = ORIENTED_EDGE ( 'NONE', *, *, #238, .T. ) ;
#121 = ORIENTED_EDGE ( 'NONE', *, *, #338, .F. ) ;
#122 = PLANE ( 'NONE',  #333 ) ;
#123 = SURFACE_STYLE_USAGE ( .BOTH. , #192 ) ;
#124 = CARTESIAN_POINT ( 'NONE',  ( 3.000000000000000000, 2.192966475459858300, 8.362221087643396400 ) ) ;
#125 =( NAMED_UNIT ( * ) SI_UNIT ( $, .STERADIAN. ) SOLID_ANGLE_UNIT ( ) );
#126 = FACE_OUTER_BOUND ( 'NONE', #326, .T. ) ;
#127 = ORIENTED_EDGE ( 'NONE', *, *, #273, .T. ) ;
#128 = DIRECTION ( 'NONE',  ( 0.0000000000000000000, 0.9510565162951546400, -0.3090169943749439500 ) ) ;
#129 = ADVANCED_FACE ( 'NONE', ( #126 ), #248, .F. ) ;
#130 = DIRECTION ( 'NONE',  ( -1.000000000000000000, 0.0000000000000000000, 0.0000000000000000000 ) ) ;
#131 = ORIENTED_EDGE ( 'NONE', *, *, #253, .T. ) ;
#132 = VERTEX_POINT ( 'NONE', #140 ) ;
#133 = VECTOR ( 'NONE', #6, 1000.000000000000200 ) ;
#134 = APPLICATION_PROTOCOL_DEFINITION ( 'draft international standard', 'automotive_design', 1998, #5 ) ;
#135 = DIRECTION ( 'NONE',  ( 0.0000000000000000000, 0.0000000000000000000, -1.000000000000000000 ) ) ;
#136 = AXIS2_PLACEMENT_3D ( 'NONE', #58, #266, #220 ) ;
#137 =( NAMED_UNIT ( * ) SI_UNIT ( $, .STERADIAN. ) SOLID_ANGLE_UNIT ( ) );
#138 = FACE_BOUND ( 'NONE', #306, .T. ) ;
#139 = EDGE_CURVE ( 'NONE', #84, #112, #173, .T. ) ;
#140 = CARTESIAN_POINT ( 'NONE',  ( 3.000000000000000000, 0.0000000000000000000, -1.549999999999999200 ) ) ;
#141 = CARTESIAN_POINT ( 'NONE',  ( 3.000000000000000000, -2.999999999999859700, 0.9458963666369412100 ) ) ;
#142 = ORIENTED_EDGE ( 'NONE', *, *, #338, .T. ) ;
#143 = STYLED_ITEM ( 'NONE', ( #198 ), #156 ) ;
#144 = ORIENTED_EDGE ( 'NONE', *, *, #195, .T. ) ;
#145 = ORIENTED_EDGE ( 'NONE', *, *, #14, .T. ) ;
#146 = VECTOR ( 'NONE', #307, 1000.000000000000000 ) ;
#147 = ORIENTED_EDGE ( 'NONE', *, *, #313, .F. ) ;
#148 = FILL_AREA_STYLE ('',( #3 ) ) ;
#149 = DIRECTION ( 'NONE',  ( -1.000000000000000000, 0.0000000000000000000, 0.0000000000000000000 ) ) ;
#150 = CARTESIAN_POINT ( 'NONE',  ( 0.0000000000000000000, -2.999999999999859700, 0.9458963666369412100 ) ) ;
#151 = VERTEX_POINT ( 'NONE', #176 ) ;
#152 = DIRECTION ( 'NONE',  ( 0.0000000000000000000, 1.917691078547849900E-016, -1.000000000000000000 ) ) ;
#153 = DIRECTION ( 'NONE',  ( 0.0000000000000000000, -0.5735764363510442700, -0.8191520442889930200 ) ) ;
#154 = DIRECTION ( 'NONE',  ( -1.000000000000000000, 0.0000000000000000000, 0.0000000000000000000 ) ) ;
#155 = FACE_OUTER_BOUND ( 'NONE', #206, .T. ) ;
#156 = MANIFOLD_SOLID_BREP ( 'Kombinieren1', #24 ) ;
#157 = VECTOR ( 'NONE', #340, 1000.000000000000200 ) ;
#158 =( LENGTH_UNIT ( ) NAMED_UNIT ( * ) SI_UNIT ( .MILLI., .METRE. ) );
#159 = CARTESIAN_POINT ( 'NONE',  ( 3.000000000000000000, -2.999999999999857900, -8.099999999999999600 ) ) ;
#160 = CARTESIAN_POINT ( 'NONE',  ( 0.0000000000000000000, -2.999999999999857900, -8.099999999999999600 ) ) ;
#161 = VECTOR ( 'NONE', #152, 1000.000000000000000 ) ;
#162 = AXIS2_PLACEMENT_3D ( 'NONE', #88, #291, #128 ) ;
#163 = PRODUCT_CONTEXT ( 'NONE', #5, 'mechanical' ) ;
#164 = CARTESIAN_POINT ( 'NONE',  ( 3.000000000000000000, 2.192966475459858300, 8.362221087643396400 ) ) ;
#165 = CARTESIAN_POINT ( 'NONE',  ( 3.000000000000000000, -2.999999999999859700, 0.9458963666369412100 ) ) ;
#166 = EDGE_LOOP ( 'NONE', ( #121, #102, #127, #264 ) ) ;
#167 = EDGE_LOOP ( 'NONE', ( #304, #215 ) ) ;
#168 = LINE ( 'NONE', #288, #231 ) ;
#169 = SURFACE_STYLE_FILL_AREA ( #68 ) ;
#170 = STYLED_ITEM ( 'NONE', ( #302 ), #242 ) ;
#171 =( NAMED_UNIT ( * ) PLANE_ANGLE_UNIT ( ) SI_UNIT ( $, .RADIAN. ) );
#172 = EDGE_LOOP ( 'NONE', ( #131, #183, #317, #8 ) ) ;
#173 = LINE ( 'NONE', #315, #301 ) ;
#174 = ORIENTED_EDGE ( 'NONE', *, *, #139, .T. ) ;
#175 = PRESENTATION_LAYER_ASSIGNMENT (  '', '', ( #143 ) ) ;
#176 = CARTESIAN_POINT ( 'NONE',  ( 3.000000000000000000, 3.000000000000144300, -0.9458963666369342200 ) ) ;
#177 = COLOUR_RGB ( '',0.9372549019607843100, 0.9607843137254902200, 1.000000000000000000 ) ;
#178 = LINE ( 'NONE', #48, #233 ) ;
#179 = CARTESIAN_POINT ( 'NONE',  ( 0.0000000000000000000, 0.0000000000000000000, 0.0000000000000000000 ) ) ;
#180 = DIRECTION ( 'NONE',  ( 0.0000000000000000000, 0.8191520442889931300, -0.5735764363510443800 ) ) ;
#181 = CARTESIAN_POINT ( 'NONE',  ( 0.0000000000000000000, 3.000000000000142600, 8.099999999999999600 ) ) ;
#182 = ADVANCED_FACE ( 'NONE', ( #329 ), #54, .F. ) ;
#183 = ORIENTED_EDGE ( 'NONE', *, *, #305, .F. ) ;
#184 = FACE_OUTER_BOUND ( 'NONE', #61, .T. ) ;
#185 = ADVANCED_FACE ( 'NONE', ( #237 ), #70, .F. ) ;
#186 = DIRECTION ( 'NONE',  ( 0.0000000000000000000, 0.0000000000000000000, -1.000000000000000000 ) ) ;
#187 = CYLINDRICAL_SURFACE ( 'NONE', #51, 1.549999999999999400 ) ;
#188 = VERTEX_POINT ( 'NONE', #181 ) ;
#189 = DIRECTION ( 'NONE',  ( -1.000000000000000000, 0.0000000000000000000, 0.0000000000000000000 ) ) ;
#190 = CARTESIAN_POINT ( 'NONE',  ( 0.0000000000000000000, -2.192966475459573200, -8.362221087643396400 ) ) ;
#191 = PRESENTATION_LAYER_ASSIGNMENT (  '', '', ( #170 ) ) ;
#192 = SURFACE_SIDE_STYLE ('',( #169 ) ) ;
#193 = ORIENTED_EDGE ( 'NONE', *, *, #114, .T. ) ;
#194 = ORIENTED_EDGE ( 'NONE', *, *, #92, .F. ) ;
#195 = EDGE_CURVE ( 'NONE', #132, #203, #71, .T. ) ;
#196 = DIRECTION ( 'NONE',  ( 0.0000000000000000000, 0.9510565162951546400, -0.3090169943749439500 ) ) ;
#197 = FACE_OUTER_BOUND ( 'NONE', #241, .T. ) ;
#198 = PRESENTATION_STYLE_ASSIGNMENT (( #20 ) ) ;
#199 = MECHANICAL_DESIGN_GEOMETRIC_PRESENTATION_REPRESENTATION (  '', ( #143 ), #218 ) ;
#200 = DIRECTION ( 'NONE',  ( 1.000000000000000000, 0.0000000000000000000, -0.0000000000000000000 ) ) ;
#201 = ORIENTED_EDGE ( 'NONE', *, *, #238, .F. ) ;
#202 = PLANE ( 'NONE',  #79 ) ;
#203 = VERTEX_POINT ( 'NONE', #230 ) ;
#204 = DIRECTION ( 'NONE',  ( 0.0000000000000000000, -0.8191520442889934600, 0.5735764363510439400 ) ) ;
#205 = DIRECTION ( 'NONE',  ( 0.0000000000000000000, 1.917691078547851100E-016, -1.000000000000000000 ) ) ;
#206 = EDGE_LOOP ( 'NONE', ( #212, #281, #312, #193, #45, #145 ) ) ;
#207 = VERTEX_POINT ( 'NONE', #190 ) ;
#208 = CARTESIAN_POINT ( 'NONE',  ( 0.0000000000000000000, -1.898202538678396700E-016, 1.549999999999999400 ) ) ;
#209 = MECHANICAL_DESIGN_GEOMETRIC_PRESENTATION_REPRESENTATION (  '', ( #170 ), #227 ) ;
#210 = CARTESIAN_POINT ( 'NONE',  ( 0.0000000000000000000, 0.0000000000000000000, 0.0000000000000000000 ) ) ;
#211 = ORIENTED_EDGE ( 'NONE', *, *, #253, .F. ) ;
#212 = ORIENTED_EDGE ( 'NONE', *, *, #313, .T. ) ;
#213 = APPLICATION_PROTOCOL_DEFINITION ( 'draft international standard', 'automotive_design', 1998, #299 ) ;
#214 = DIRECTION ( 'NONE',  ( 0.0000000000000000000, 0.0000000000000000000, 1.000000000000000000 ) ) ;
#215 = ORIENTED_EDGE ( 'NONE', *, *, #331, .F. ) ;
#216 = DIRECTION ( 'NONE',  ( 0.0000000000000000000, 0.0000000000000000000, -1.000000000000000000 ) ) ;
#217 = PLANE ( 'NONE',  #136 ) ;
#218 =( GEOMETRIC_REPRESENTATION_CONTEXT ( 3 ) GLOBAL_UNCERTAINTY_ASSIGNED_CONTEXT ( ( #40 ) ) GLOBAL_UNIT_ASSIGNED_CONTEXT ( ( #158, #18, #95 ) ) REPRESENTATION_CONTEXT ( 'NONE', 'WORKASPACE' ) );
#219 = CARTESIAN_POINT ( 'NONE',  ( 0.0000000000000000000, 0.0000000000000000000, 0.0000000000000000000 ) ) ;
#220 = DIRECTION ( 'NONE',  ( 0.0000000000000000000, 0.0000000000000000000, 1.000000000000000000 ) ) ;
#221 = ORIENTED_EDGE ( 'NONE', *, *, #36, .F. ) ;
#222 = VERTEX_POINT ( 'NONE', #16 ) ;
#223 = CARTESIAN_POINT ( 'NONE',  ( 0.0000000000000000000, -2.192966475459573200, -8.362221087643396400 ) ) ;
#224 = PRODUCT_DEFINITION_SHAPE ( 'NONE', 'NONE',  #295 ) ;
#225 = EDGE_CURVE ( 'NONE', #151, #339, #67, .T. ) ;
#226 = ORIENTED_EDGE ( 'NONE', *, *, #229, .T. ) ;
#227 =( GEOMETRIC_REPRESENTATION_CONTEXT ( 3 ) GLOBAL_UNCERTAINTY_ASSIGNED_CONTEXT ( ( #325 ) ) GLOBAL_UNIT_ASSIGNED_CONTEXT ( ( #13, #171, #125 ) ) REPRESENTATION_CONTEXT ( 'NONE', 'WORKASPACE' ) );
#228 = CARTESIAN_POINT ( 'NONE',  ( 3.000000000000000000, 0.0000000000000000000, 0.0000000000000000000 ) ) ;
#229 = EDGE_CURVE ( 'NONE', #263, #207, #336, .T. ) ;
#230 = CARTESIAN_POINT ( 'NONE',  ( 3.000000000000000000, -1.898202538678396500E-016, 1.549999999999999200 ) ) ;
#231 = VECTOR ( 'NONE', #38, 1000.000000000000200 ) ;
#232 = DIRECTION ( 'NONE',  ( -1.000000000000000000, 0.0000000000000000000, 0.0000000000000000000 ) ) ;
#233 = VECTOR ( 'NONE', #73, 1000.000000000000000 ) ;
#234 = DIRECTION ( 'NONE',  ( 0.0000000000000000000, 0.3090169943749440100, 0.9510565162951547500 ) ) ;
#235 = CARTESIAN_POINT ( 'NONE',  ( 3.000000000000000000, -2.999999999999857900, -8.099999999999999600 ) ) ;
#236 = ADVANCED_FACE ( 'NONE', ( #316 ), #122, .F. ) ;
#237 = FACE_OUTER_BOUND ( 'NONE', #166, .T. ) ;
#238 = EDGE_CURVE ( 'NONE', #1, #84, #47, .T. ) ;
#239 = CARTESIAN_POINT ( 'NONE',  ( 3.000000000000000000, -2.999999999999859700, 0.9458963666369412100 ) ) ;
#240 = EDGE_CURVE ( 'NONE', #203, #132, #53, .T. ) ;
#241 = EDGE_LOOP ( 'NONE', ( #116, #265, #69, #292 ) ) ;
#242 = ADVANCED_BREP_SHAPE_REPRESENTATION ( 'CUT-822-02', ( #156, #279 ), #113 ) ;
#243 = EDGE_LOOP ( 'NONE', ( #174, #256, #257, #120 ) ) ;
#244 = DIRECTION ( 'NONE',  ( -1.000000000000000000, 0.0000000000000000000, 0.0000000000000000000 ) ) ;
#245 = LINE ( 'NONE', #294, #157 ) ;
#246 = LINE ( 'NONE', #334, #133 ) ;
#247 = ORIENTED_EDGE ( 'NONE', *, *, #44, .T. ) ;
#248 = PLANE ( 'NONE',  #162 ) ;
#249 = FACE_BOUND ( 'NONE', #167, .T. ) ;
#250 = SURFACE_SIDE_STYLE ('',( #109 ) ) ;
#251 = LINE ( 'NONE', #208, #12 ) ;
#252 = CARTESIAN_POINT ( 'NONE',  ( 3.000000000000000000, 3.000000000000144300, -0.9458963666369342200 ) ) ;
#253 = EDGE_CURVE ( 'NONE', #112, #263, #56, .T. ) ;
#254 = CARTESIAN_POINT ( 'NONE',  ( 3.000000000000000000, -2.999999999999857900, -8.099999999999999600 ) ) ;
#255 = ORIENTED_EDGE ( 'NONE', *, *, #240, .T. ) ;
#256 = ORIENTED_EDGE ( 'NONE', *, *, #303, .F. ) ;
#257 = ORIENTED_EDGE ( 'NONE', *, *, #324, .F. ) ;
#258 = CARTESIAN_POINT ( 'NONE',  ( 0.0000000000000000000, 0.0000000000000000000, 0.0000000000000000000 ) ) ;
#259 = EDGE_LOOP ( 'NONE', ( #298, #142, #118, #115 ) ) ;
#260 = COLOUR_RGB ( '',0.9372549019607843100, 0.9607843137254902200, 1.000000000000000000 ) ;
#261 = ADVANCED_FACE ( 'NONE', ( #34 ), #39, .F. ) ;
#262 = CARTESIAN_POINT ( 'NONE',  ( 3.000000000000000000, 3.000000000000142600, 8.099999999999999600 ) ) ;
#263 = VERTEX_POINT ( 'NONE', #49 ) ;
#264 = ORIENTED_EDGE ( 'NONE', *, *, #23, .T. ) ;
#265 = ORIENTED_EDGE ( 'NONE', *, *, #44, .F. ) ;
#266 = DIRECTION ( 'NONE',  ( 1.000000000000000000, 0.0000000000000000000, -0.0000000000000000000 ) ) ;
#267 = AXIS2_PLACEMENT_3D ( 'NONE', #321, #204, #78 ) ;
#268 = LINE ( 'NONE', #104, #11 ) ;
#269 = ORIENTED_EDGE ( 'NONE', *, *, #92, .T. ) ;
#270 = CARTESIAN_POINT ( 'NONE',  ( 0.0000000000000000000, -2.999999999999859700, 0.9458963666369412100 ) ) ;
#271 = PRODUCT ( 'CUT-822-02', 'CUT-822-02', '', ( #163 ) ) ;
#272 = DIRECTION ( 'NONE',  ( 0.0000000000000000000, 0.0000000000000000000, -1.000000000000000000 ) ) ;
#273 = EDGE_CURVE ( 'NONE', #132, #52, #32, .T. ) ;
#274 = VECTOR ( 'NONE', #282, 1000.000000000000200 ) ;
#275 = ORIENTED_EDGE ( 'NONE', *, *, #283, .T. ) ;
#276 = CARTESIAN_POINT ( 'NONE',  ( 3.000000000000000000, -2.999999999999857900, -8.099999999999999600 ) ) ;
#277 = ORIENTED_EDGE ( 'NONE', *, *, #117, .F. ) ;
#278 = DIRECTION ( 'NONE',  ( 0.0000000000000000000, -1.917691078547851300E-016, 1.000000000000000000 ) ) ;
#279 = AXIS2_PLACEMENT_3D ( 'NONE', #258, #83, #29 ) ;
#280 = LINE ( 'NONE', #254, #66 ) ;
#281 = ORIENTED_EDGE ( 'NONE', *, *, #97, .T. ) ;
#282 = DIRECTION ( 'NONE',  ( 0.0000000000000000000, 0.9510565162951546400, -0.3090169943749439500 ) ) ;
#283 = EDGE_CURVE ( 'NONE', #207, #339, #31, .T. ) ;
#284 = LINE ( 'NONE', #74, #287 ) ;
#285 = AXIS2_PLACEMENT_3D ( 'NONE', #65, #77, #272 ) ;
#286 = CIRCLE ( 'NONE', #64, 1.549999999999999600 ) ;
#287 = VECTOR ( 'NONE', #35, 1000.000000000000000 ) ;
#288 = CARTESIAN_POINT ( 'NONE',  ( 3.000000000000000000, 3.000000000000142600, 8.099999999999999600 ) ) ;
#289 = ADVANCED_FACE ( 'NONE', ( #15 ), #202, .F. ) ;
#290 = DIRECTION ( 'NONE',  ( -1.000000000000000000, 0.0000000000000000000, 0.0000000000000000000 ) ) ;
#291 = DIRECTION ( 'NONE',  ( 0.0000000000000000000, -0.3090169943749440100, -0.9510565162951547500 ) ) ;
#292 = ORIENTED_EDGE ( 'NONE', *, *, #225, .T. ) ;
#293 = EDGE_CURVE ( 'NONE', #151, #310, #27, .T. ) ;
#294 = CARTESIAN_POINT ( 'NONE',  ( 3.000000000000000000, -2.192966475459573200, -8.362221087643396400 ) ) ;
#295 = PRODUCT_DEFINITION ( 'UNKNOWN', '', #309, #75 ) ;
#296 = DIRECTION ( 'NONE',  ( 0.0000000000000000000, 1.917691078547849900E-016, -1.000000000000000000 ) ) ;
#297 = ORIENTED_EDGE ( 'NONE', *, *, #139, .F. ) ;
#298 = ORIENTED_EDGE ( 'NONE', *, *, #240, .F. ) ;
#299 = APPLICATION_CONTEXT ( 'automotive_design' ) ;
#300 = AXIS2_PLACEMENT_3D ( 'NONE', #210, #4, #318 ) ;
#301 = VECTOR ( 'NONE', #153, 1000.000000000000100 ) ;
#302 = PRESENTATION_STYLE_ASSIGNMENT (( #123 ) ) ;
#303 = EDGE_CURVE ( 'NONE', #308, #112, #41, .T. ) ;
#304 = ORIENTED_EDGE ( 'NONE', *, *, #23, .F. ) ;
#305 = EDGE_CURVE ( 'NONE', #105, #263, #7, .T. ) ;
#306 = EDGE_LOOP ( 'NONE', ( #144, #255 ) ) ;
#307 = DIRECTION ( 'NONE',  ( -1.000000000000000000, 0.0000000000000000000, 0.0000000000000000000 ) ) ;
#308 = VERTEX_POINT ( 'NONE', #101 ) ;
#309 = PRODUCT_DEFINITION_FORMATION_WITH_SPECIFIED_SOURCE ( 'ANY', '', #271, .NOT_KNOWN. ) ;
#310 = VERTEX_POINT ( 'NONE', #262 ) ;
#311 = EDGE_LOOP ( 'NONE', ( #226, #221, #147, #55 ) ) ;
#312 = ORIENTED_EDGE ( 'NONE', *, *, #293, .T. ) ;
#313 = EDGE_CURVE ( 'NONE', #105, #222, #280, .T. ) ;
#314 = DIRECTION ( 'NONE',  ( -1.000000000000000000, 0.0000000000000000000, 0.0000000000000000000 ) ) ;
#315 = CARTESIAN_POINT ( 'NONE',  ( 0.0000000000000000000, 2.192966475459858300, 8.362221087643396400 ) ) ;
#316 = FACE_OUTER_BOUND ( 'NONE', #311, .T. ) ;
#317 = ORIENTED_EDGE ( 'NONE', *, *, #14, .F. ) ;
#318 = DIRECTION ( 'NONE',  ( 0.0000000000000000000, 0.0000000000000000000, -1.000000000000000000 ) ) ;
#319 = AXIS2_PLACEMENT_3D ( 'NONE', #228, #110, #135 ) ;
#320 = CARTESIAN_POINT ( 'NONE',  ( 3.000000000000000000, 3.000000000000144300, -0.9458963666369342200 ) ) ;
#321 = CARTESIAN_POINT ( 'NONE',  ( 3.000000000000000000, -2.192966475459573200, -8.362221087643396400 ) ) ;
#322 = ORIENTED_EDGE ( 'NONE', *, *, #225, .F. ) ;
#323 = CARTESIAN_POINT ( 'NONE',  ( 1.224646799147363400E-017, 0.0000000000000000000, -1.549999999999999600 ) ) ;
#324 = EDGE_CURVE ( 'NONE', #1, #308, #268, .T. ) ;
#325 = UNCERTAINTY_MEASURE_WITH_UNIT (LENGTH_MEASURE( 1.000000000000000100E-005 ), #13, 'distance_accuracy_value', 'NONE');
#326 = EDGE_LOOP ( 'NONE', ( #269, #201, #90, #247 ) ) ;
#327 = PRODUCT_RELATED_PRODUCT_CATEGORY ( 'part', '', ( #271 ) ) ;
#328 = PLANE ( 'NONE',  #85 ) ;
#329 = FACE_OUTER_BOUND ( 'NONE', #93, .T. ) ;
#330 = DIRECTION ( 'NONE',  ( 0.0000000000000000000, -1.000000000000000000, -1.917691078547851100E-016 ) ) ;
#331 = EDGE_CURVE ( 'NONE', #50, #52, #286, .T. ) ;
#332 = CARTESIAN_POINT ( 'NONE',  ( 1.224646799147363400E-017, 0.0000000000000000000, 0.0000000000000000000 ) ) ;
#333 = AXIS2_PLACEMENT_3D ( 'NONE', #276, #234, #26 ) ;
#334 = CARTESIAN_POINT ( 'NONE',  ( 0.0000000000000000000, 3.000000000000142600, 8.099999999999999600 ) ) ;
#335 = DIRECTION ( 'NONE',  ( 0.0000000000000000000, -0.5735764363510442700, -0.8191520442889930200 ) ) ;
#336 = LINE ( 'NONE', #160, #274 ) ;
#337 = ADVANCED_FACE ( 'NONE', ( #138, #155 ), #217, .T. ) ;
#338 = EDGE_CURVE ( 'NONE', #203, #50, #251, .T. ) ;
#339 = VERTEX_POINT ( 'NONE', #341 ) ;
#340 = DIRECTION ( 'NONE',  ( 0.0000000000000000000, 0.5735764363510438300, 0.8191520442889933500 ) ) ;
#341 = CARTESIAN_POINT ( 'NONE',  ( 0.0000000000000000000, 3.000000000000144300, -0.9458963666369342200 ) ) ;
#342 = DIRECTION ( 'NONE',  ( 0.0000000000000000000, -1.917691078547849900E-016, 1.000000000000000000 ) ) ;
ENDSEC;
END-ISO-10303-21;
