ISO-10303-21;
HEADER;
FILE_DESCRIPTION (( 'STEP AP214' ),
    '1' );
FILE_NAME ('CUT-822-03.step',
    '2017-06-09T12:54:07',
    ( 'e00158' ),
    ( 'Microsoft' ),
    'SwSTEP 2.0',
    'SolidWorks 2016',
    '' );
FILE_SCHEMA (( 'AUTOMOTIVE_DESIGN' ));
ENDSEC;

DATA;
#1 = DIRECTION ( 'NONE',  ( 0.0000000000000000000, 1.000000000000000000, 1.948931213803407500E-016 ) ) ;
#2 = PRODUCT_CONTEXT ( 'NONE', #285, 'mechanical' ) ;
#3 = CARTESIAN_POINT ( 'NONE',  ( 4.000000000000000000, -2.999999999999859700, 0.9458963666369412100 ) ) ;
#4 = ORIENTED_EDGE ( 'NONE', *, *, #24, .F. ) ;
#5 = FACE_OUTER_BOUND ( 'NONE', #42, .T. ) ;
#6 = EDGE_CURVE ( 'NONE', #91, #94, #111, .T. ) ;
#7 = FACE_OUTER_BOUND ( 'NONE', #338, .T. ) ;
#8 = ORIENTED_EDGE ( 'NONE', *, *, #230, .T. ) ;
#9 = CARTESIAN_POINT ( 'NONE',  ( 4.000000000000000000, 3.000000000000144300, -0.9458963666369342200 ) ) ;
#10 = ORIENTED_EDGE ( 'NONE', *, *, #119, .T. ) ;
#11 = ORIENTED_EDGE ( 'NONE', *, *, #265, .T. ) ;
#12 = EDGE_CURVE ( 'NONE', #286, #91, #18, .T. ) ;
#13 = VECTOR ( 'NONE', #105, 999.9999999999998900 ) ;
#14 = VECTOR ( 'NONE', #309, 1000.000000000000000 ) ;
#15 = AXIS2_PLACEMENT_3D ( 'NONE', #157, #317, #305 ) ;
#16 = DIRECTION ( 'NONE',  ( 0.0000000000000000000, 0.5735764363510438300, 0.8191520442889933500 ) ) ;
#17 = PRODUCT ( 'CUT-822-03', 'CUT-822-03', '', ( #2 ) ) ;
#18 = LINE ( 'NONE', #147, #30 ) ;
#19 = EDGE_LOOP ( 'NONE', ( #140, #61 ) ) ;
#20 = PRODUCT_DEFINITION_SHAPE ( 'NONE', 'NONE',  #218 ) ;
#21 = PLANE ( 'NONE',  #23 ) ;
#22 = DIRECTION ( 'NONE',  ( -1.000000000000000000, 0.0000000000000000000, 0.0000000000000000000 ) ) ;
#23 = AXIS2_PLACEMENT_3D ( 'NONE', #189, #180, #239 ) ;
#24 = EDGE_CURVE ( 'NONE', #125, #204, #154, .T. ) ;
#25 = VECTOR ( 'NONE', #326, 999.9999999999998900 ) ;
#26 = DIRECTION ( 'NONE',  ( 0.0000000000000000000, 1.948931213803407500E-016, -1.000000000000000000 ) ) ;
#27 = UNCERTAINTY_MEASURE_WITH_UNIT (LENGTH_MEASURE( 1.000000000000000100E-005 ), #208, 'distance_accuracy_value', 'NONE');
#28 = DIRECTION ( 'NONE',  ( 0.0000000000000000000, -0.8191520442889934600, 0.5735764363510439400 ) ) ;
#29 = CARTESIAN_POINT ( 'NONE',  ( 0.0000000000000000000, -2.136530645425046800, -8.281622369470749600 ) ) ;
#30 = VECTOR ( 'NONE', #240, 1000.000000000000000 ) ;
#31 = ORIENTED_EDGE ( 'NONE', *, *, #196, .F. ) ;
#32 = LINE ( 'NONE', #52, #330 ) ;
#33 =( NAMED_UNIT ( * ) PLANE_ANGLE_UNIT ( ) SI_UNIT ( $, .RADIAN. ) );
#34 =( GEOMETRIC_REPRESENTATION_CONTEXT ( 3 ) GLOBAL_UNCERTAINTY_ASSIGNED_CONTEXT ( ( #302 ) ) GLOBAL_UNIT_ASSIGNED_CONTEXT ( ( #276, #33, #203 ) ) REPRESENTATION_CONTEXT ( 'NONE', 'WORKASPACE' ) );
#35 = PLANE ( 'NONE',  #15 ) ;
#36 = EDGE_LOOP ( 'NONE', ( #213, #4, #121, #142, #113, #293 ) ) ;
#37 = DIRECTION ( 'NONE',  ( 0.0000000000000000000, 0.0000000000000000000, -1.000000000000000000 ) ) ;
#38 = CARTESIAN_POINT ( 'NONE',  ( 0.0000000000000000000, -2.999999999999859700, 0.9458963666369412100 ) ) ;
#39 = SURFACE_STYLE_FILL_AREA ( #83 ) ;
#40 = DIRECTION ( 'NONE',  ( 0.0000000000000000000, -1.948931213803408800E-016, 1.000000000000000000 ) ) ;
#41 = EDGE_CURVE ( 'NONE', #316, #152, #149, .T. ) ;
#42 = EDGE_LOOP ( 'NONE', ( #306, #325, #11, #195 ) ) ;
#43 = AXIS2_PLACEMENT_3D ( 'NONE', #87, #232, #299 ) ;
#44 = DIRECTION ( 'NONE',  ( 1.000000000000000000, 0.0000000000000000000, 0.0000000000000000000 ) ) ;
#45 = ADVANCED_FACE ( 'NONE', ( #129 ), #146, .F. ) ;
#46 = CARTESIAN_POINT ( 'NONE',  ( 4.000000000000000000, -2.999999999999857900, -7.955000000000000100 ) ) ;
#47 = EDGE_LOOP ( 'NONE', ( #206, #227, #252, #127 ) ) ;
#48 =( NAMED_UNIT ( * ) PLANE_ANGLE_UNIT ( ) SI_UNIT ( $, .RADIAN. ) );
#49 = LINE ( 'NONE', #254, #209 ) ;
#50 = EDGE_CURVE ( 'NONE', #75, #125, #228, .T. ) ;
#51 = DIRECTION ( 'NONE',  ( -1.000000000000000000, 0.0000000000000000000, 0.0000000000000000000 ) ) ;
#52 = CARTESIAN_POINT ( 'NONE',  ( 4.000000000000000000, 3.000000000000142600, 7.955000000000000100 ) ) ;
#53 = CARTESIAN_POINT ( 'NONE',  ( 4.000000000000000000, -2.136530645425046800, -8.281622369470749600 ) ) ;
#54 = CARTESIAN_POINT ( 'NONE',  ( 0.0000000000000000000, 2.136530645425331400, 8.281622369470751400 ) ) ;
#55 = DIRECTION ( 'NONE',  ( 0.0000000000000000000, 1.948931213803407500E-016, -1.000000000000000000 ) ) ;
#56 = AXIS2_PLACEMENT_3D ( 'NONE', #169, #294, #69 ) ;
#57 = LINE ( 'NONE', #3, #245 ) ;
#58 = CARTESIAN_POINT ( 'NONE',  ( 4.000000000000000000, -2.999999999999857900, -7.955000000000000100 ) ) ;
#59 = VECTOR ( 'NONE', #334, 1000.000000000000100 ) ;
#60 = VERTEX_POINT ( 'NONE', #222 ) ;
#61 = ORIENTED_EDGE ( 'NONE', *, *, #104, .T. ) ;
#62 = CARTESIAN_POINT ( 'NONE',  ( 4.000000000000000000, -2.999999999999857900, -7.955000000000000100 ) ) ;
#63 = AXIS2_PLACEMENT_3D ( 'NONE', #211, #1, #136 ) ;
#64 = ORIENTED_EDGE ( 'NONE', *, *, #50, .T. ) ;
#65 = UNCERTAINTY_MEASURE_WITH_UNIT (LENGTH_MEASURE( 1.000000000000000100E-005 ), #288, 'distance_accuracy_value', 'NONE');
#66 = ORIENTED_EDGE ( 'NONE', *, *, #181, .T. ) ;
#67 = COLOUR_RGB ( '',0.9372549019607843100, 0.9607843137254902200, 1.000000000000000000 ) ;
#68 = VECTOR ( 'NONE', #200, 1000.000000000000200 ) ;
#69 = DIRECTION ( 'NONE',  ( 0.0000000000000000000, 0.9353205878449263300, -0.3538013538038278200 ) ) ;
#70 = EDGE_LOOP ( 'NONE', ( #71, #177, #284, #225 ) ) ;
#71 = ORIENTED_EDGE ( 'NONE', *, *, #104, .F. ) ;
#72 = CARTESIAN_POINT ( 'NONE',  ( 4.000000000000000000, -2.999999999999859700, 0.9458963666369412100 ) ) ;
#73 = ADVANCED_FACE ( 'NONE', ( #271, #300 ), #21, .F. ) ;
#74 = CIRCLE ( 'NONE', #43, 1.549999999999999200 ) ;
#75 = VERTEX_POINT ( 'NONE', #137 ) ;
#76 = DIRECTION ( 'NONE',  ( -1.000000000000000000, 0.0000000000000000000, 0.0000000000000000000 ) ) ;
#77 = FACE_OUTER_BOUND ( 'NONE', #315, .T. ) ;
#78 = DIRECTION ( 'NONE',  ( 0.0000000000000000000, -0.9353205878449263300, 0.3538013538038279300 ) ) ;
#79 = DIRECTION ( 'NONE',  ( 0.0000000000000000000, 0.0000000000000000000, -1.000000000000000000 ) ) ;
#80 = VERTEX_POINT ( 'NONE', #192 ) ;
#81 =( NAMED_UNIT ( * ) PLANE_ANGLE_UNIT ( ) SI_UNIT ( $, .RADIAN. ) );
#82 = ADVANCED_FACE ( 'NONE', ( #124 ), #107, .F. ) ;
#83 = FILL_AREA_STYLE ('',( #170 ) ) ;
#84 = STYLED_ITEM ( 'NONE', ( #160 ), #114 ) ;
#85 = VECTOR ( 'NONE', #336, 1000.000000000000000 ) ;
#86 = ORIENTED_EDGE ( 'NONE', *, *, #296, .F. ) ;
#87 = CARTESIAN_POINT ( 'NONE',  ( 4.000000000000000000, 0.0000000000000000000, 0.0000000000000000000 ) ) ;
#88 = CARTESIAN_POINT ( 'NONE',  ( 4.000000000000000000, 0.0000000000000000000, 0.0000000000000000000 ) ) ;
#89 = DIRECTION ( 'NONE',  ( 0.0000000000000000000, -0.9353205878449268900, 0.3538013538038264300 ) ) ;
#90 = FACE_OUTER_BOUND ( 'NONE', #70, .T. ) ;
#91 = VERTEX_POINT ( 'NONE', #216 ) ;
#92 = STYLED_ITEM ( 'NONE', ( #112 ), #295 ) ;
#93 = CARTESIAN_POINT ( 'NONE',  ( 4.000000000000000000, -2.136530645425046800, -8.281622369470749600 ) ) ;
#94 = VERTEX_POINT ( 'NONE', #272 ) ;
#95 = VERTEX_POINT ( 'NONE', #9 ) ;
#96 = PRODUCT_DEFINITION_CONTEXT ( 'detailed design', #298, 'design' ) ;
#97 = PRESENTATION_LAYER_ASSIGNMENT (  '', '', ( #84 ) ) ;
#98 = ORIENTED_EDGE ( 'NONE', *, *, #144, .F. ) ;
#99 = DIRECTION ( 'NONE',  ( -1.000000000000000000, 0.0000000000000000000, 0.0000000000000000000 ) ) ;
#100 = SURFACE_STYLE_USAGE ( .BOTH. , #151 ) ;
#101 = CARTESIAN_POINT ( 'NONE',  ( 4.000000000000000000, -1.898202538678396500E-016, 1.549999999999999200 ) ) ;
#102 = DIRECTION ( 'NONE',  ( 0.0000000000000000000, -0.5735764363510438300, -0.8191520442889933500 ) ) ;
#103 = PLANE ( 'NONE',  #258 ) ;
#104 = EDGE_CURVE ( 'NONE', #286, #80, #74, .T. ) ;
#105 = DIRECTION ( 'NONE',  ( 0.0000000000000000000, -0.5735764363510442700, -0.8191520442889931300 ) ) ;
#106 = ORIENTED_EDGE ( 'NONE', *, *, #214, .F. ) ;
#107 = PLANE ( 'NONE',  #63 ) ;
#108 = CARTESIAN_POINT ( 'NONE',  ( 0.0000000000000000000, 0.0000000000000000000, 0.0000000000000000000 ) ) ;
#109 = DIRECTION ( 'NONE',  ( 0.0000000000000000000, 0.0000000000000000000, -1.000000000000000000 ) ) ;
#110 = PRESENTATION_LAYER_ASSIGNMENT (  '', '', ( #92 ) ) ;
#111 = CIRCLE ( 'NONE', #278, 1.549999999999999600 ) ;
#112 = PRESENTATION_STYLE_ASSIGNMENT (( #243 ) ) ;
#113 = ORIENTED_EDGE ( 'NONE', *, *, #248, .F. ) ;
#114 = MANIFOLD_SOLID_BREP ( 'Kombinieren1', #167 ) ;
#115 = MECHANICAL_DESIGN_GEOMETRIC_PRESENTATION_REPRESENTATION (  '', ( #84 ), #132 ) ;
#116 =( NAMED_UNIT ( * ) SI_UNIT ( $, .STERADIAN. ) SOLID_ANGLE_UNIT ( ) );
#117 = FILL_AREA_STYLE ('',( #164 ) ) ;
#118 = LINE ( 'NONE', #287, #194 ) ;
#119 = EDGE_CURVE ( 'NONE', #204, #191, #210, .T. ) ;
#120 = EDGE_CURVE ( 'NONE', #191, #327, #337, .T. ) ;
#121 = ORIENTED_EDGE ( 'NONE', *, *, #50, .F. ) ;
#122 = CARTESIAN_POINT ( 'NONE',  ( 4.000000000000000000, 3.000000000000142600, 7.955000000000000100 ) ) ;
#123 = MECHANICAL_DESIGN_GEOMETRIC_PRESENTATION_REPRESENTATION (  '', ( #92 ), #150 ) ;
#124 = FACE_OUTER_BOUND ( 'NONE', #335, .T. ) ;
#125 = VERTEX_POINT ( 'NONE', #141 ) ;
#126 = CARTESIAN_POINT ( 'NONE',  ( 0.0000000000000000000, -2.136530645425046800, -8.281622369470749600 ) ) ;
#127 = ORIENTED_EDGE ( 'NONE', *, *, #166, .T. ) ;
#128 = CARTESIAN_POINT ( 'NONE',  ( 4.000000000000000000, 3.000000000000144300, -0.9458963666369342200 ) ) ;
#129 = FACE_OUTER_BOUND ( 'NONE', #342, .T. ) ;
#130 = DIRECTION ( 'NONE',  ( -1.000000000000000000, 0.0000000000000000000, 0.0000000000000000000 ) ) ;
#131 = ORIENTED_EDGE ( 'NONE', *, *, #244, .T. ) ;
#132 =( GEOMETRIC_REPRESENTATION_CONTEXT ( 3 ) GLOBAL_UNCERTAINTY_ASSIGNED_CONTEXT ( ( #65 ) ) GLOBAL_UNIT_ASSIGNED_CONTEXT ( ( #288, #81, #289 ) ) REPRESENTATION_CONTEXT ( 'NONE', 'WORKASPACE' ) );
#133 = ORIENTED_EDGE ( 'NONE', *, *, #332, .T. ) ;
#134 = LINE ( 'NONE', #256, #217 ) ;
#135 = DIRECTION ( 'NONE',  ( 1.000000000000000000, 0.0000000000000000000, -0.0000000000000000000 ) ) ;
#136 = DIRECTION ( 'NONE',  ( 0.0000000000000000000, -1.948931213803407500E-016, 1.000000000000000000 ) ) ;
#137 = CARTESIAN_POINT ( 'NONE',  ( 0.0000000000000000000, 2.136530645425331400, 8.281622369470751400 ) ) ;
#138 = FACE_OUTER_BOUND ( 'NONE', #255, .T. ) ;
#139 = VERTEX_POINT ( 'NONE', #277 ) ;
#140 = ORIENTED_EDGE ( 'NONE', *, *, #163, .T. ) ;
#141 = CARTESIAN_POINT ( 'NONE',  ( 0.0000000000000000000, -2.999999999999859700, 0.9458963666369412100 ) ) ;
#142 = ORIENTED_EDGE ( 'NONE', *, *, #312, .F. ) ;
#143 = EDGE_CURVE ( 'NONE', #95, #329, #270, .T. ) ;
#144 = EDGE_CURVE ( 'NONE', #94, #91, #311, .T. ) ;
#145 = CARTESIAN_POINT ( 'NONE',  ( 4.000000000000000000, -2.136530645425046800, -8.281622369470749600 ) ) ;
#146 = PLANE ( 'NONE',  #331 ) ;
#147 = CARTESIAN_POINT ( 'NONE',  ( 0.0000000000000000000, -1.898202538678396700E-016, 1.549999999999999400 ) ) ;
#148 = VERTEX_POINT ( 'NONE', #93 ) ;
#149 = LINE ( 'NONE', #236, #13 ) ;
#150 =( GEOMETRIC_REPRESENTATION_CONTEXT ( 3 ) GLOBAL_UNCERTAINTY_ASSIGNED_CONTEXT ( ( #27 ) ) GLOBAL_UNIT_ASSIGNED_CONTEXT ( ( #208, #48, #116 ) ) REPRESENTATION_CONTEXT ( 'NONE', 'WORKASPACE' ) );
#151 = SURFACE_SIDE_STYLE ('',( #274 ) ) ;
#152 = VERTEX_POINT ( 'NONE', #193 ) ;
#153 = CARTESIAN_POINT ( 'NONE',  ( 0.0000000000000000000, 0.0000000000000000000, 0.0000000000000000000 ) ) ;
#154 = LINE ( 'NONE', #38, #178 ) ;
#155 = ORIENTED_EDGE ( 'NONE', *, *, #296, .T. ) ;
#156 = CARTESIAN_POINT ( 'NONE',  ( 4.000000000000000000, 3.000000000000144300, -0.9458963666369342200 ) ) ;
#157 = CARTESIAN_POINT ( 'NONE',  ( 4.000000000000000000, 2.136530645425331400, 8.281622369470751400 ) ) ;
#158 = AXIS2_PLACEMENT_3D ( 'NONE', #280, #173, #79 ) ;
#159 = CYLINDRICAL_SURFACE ( 'NONE', #223, 1.549999999999999400 ) ;
#160 = PRESENTATION_STYLE_ASSIGNMENT (( #100 ) ) ;
#161 = PLANE ( 'NONE',  #56 ) ;
#162 = CARTESIAN_POINT ( 'NONE',  ( 0.0000000000000000000, 0.0000000000000000000, 0.0000000000000000000 ) ) ;
#163 = EDGE_CURVE ( 'NONE', #80, #286, #246, .T. ) ;
#164 = FILL_AREA_STYLE_COLOUR ( '', #67 ) ;
#165 = SHAPE_DEFINITION_REPRESENTATION ( #20, #295 ) ;
#166 = EDGE_CURVE ( 'NONE', #329, #60, #32, .T. ) ;
#167 = CLOSED_SHELL ( 'NONE', ( #183, #73, #283, #45, #233, #308, #303, #82, #212, #205 ) ) ;
#168 = FACE_BOUND ( 'NONE', #19, .T. ) ;
#169 = CARTESIAN_POINT ( 'NONE',  ( 4.000000000000000000, 3.000000000000142600, 7.955000000000000100 ) ) ;
#170 = FILL_AREA_STYLE_COLOUR ( '', #253 ) ;
#171 = ORIENTED_EDGE ( 'NONE', *, *, #143, .T. ) ;
#172 = CARTESIAN_POINT ( 'NONE',  ( 0.0000000000000000000, 0.0000000000000000000, -1.549999999999999400 ) ) ;
#173 = DIRECTION ( 'NONE',  ( -1.000000000000000000, 0.0000000000000000000, 0.0000000000000000000 ) ) ;
#174 = DIRECTION ( 'NONE',  ( 0.0000000000000000000, 0.0000000000000000000, -1.000000000000000000 ) ) ;
#175 = AXIS2_PLACEMENT_3D ( 'NONE', #190, #179, #237 ) ;
#176 = DIRECTION ( 'NONE',  ( 0.0000000000000000000, 0.0000000000000000000, 1.000000000000000000 ) ) ;
#177 = ORIENTED_EDGE ( 'NONE', *, *, #12, .T. ) ;
#178 = VECTOR ( 'NONE', #55, 1000.000000000000000 ) ;
#179 = DIRECTION ( 'NONE',  ( -1.000000000000000000, 0.0000000000000000000, 0.0000000000000000000 ) ) ;
#180 = DIRECTION ( 'NONE',  ( 1.000000000000000000, 0.0000000000000000000, -0.0000000000000000000 ) ) ;
#181 = EDGE_CURVE ( 'NONE', #316, #75, #207, .T. ) ;
#182 = CARTESIAN_POINT ( 'NONE',  ( 0.0000000000000000000, 3.000000000000144300, -0.9458963666369342200 ) ) ;
#183 = ADVANCED_FACE ( 'NONE', ( #90 ), #159, .F. ) ;
#184 = DIRECTION ( 'NONE',  ( 0.0000000000000000000, 1.948931213803408800E-016, -1.000000000000000000 ) ) ;
#185 = EDGE_LOOP ( 'NONE', ( #324, #155, #171, #333, #238, #8 ) ) ;
#186 = APPLICATION_PROTOCOL_DEFINITION ( 'draft international standard', 'automotive_design', 1998, #285 ) ;
#187 = ORIENTED_EDGE ( 'NONE', *, *, #6, .F. ) ;
#188 = LINE ( 'NONE', #156, #318 ) ;
#189 = CARTESIAN_POINT ( 'NONE',  ( 0.0000000000000000000, 0.0000000000000000000, 0.0000000000000000000 ) ) ;
#190 = CARTESIAN_POINT ( 'NONE',  ( 4.000000000000000000, 0.0000000000000000000, 0.0000000000000000000 ) ) ;
#191 = VERTEX_POINT ( 'NONE', #29 ) ;
#192 = CARTESIAN_POINT ( 'NONE',  ( 4.000000000000000000, 0.0000000000000000000, -1.549999999999999200 ) ) ;
#193 = CARTESIAN_POINT ( 'NONE',  ( 4.000000000000000000, -2.999999999999859700, 0.9458963666369412100 ) ) ;
#194 = VECTOR ( 'NONE', #292, 1000.000000000000000 ) ;
#195 = ORIENTED_EDGE ( 'NONE', *, *, #144, .T. ) ;
#196 = EDGE_CURVE ( 'NONE', #139, #204, #199, .T. ) ;
#197 = LINE ( 'NONE', #62, #273 ) ;
#198 = AXIS2_PLACEMENT_3D ( 'NONE', #162, #269, #44 ) ;
#199 = LINE ( 'NONE', #46, #85 ) ;
#200 = DIRECTION ( 'NONE',  ( 0.0000000000000000000, 0.5735764363510438300, 0.8191520442889933500 ) ) ;
#201 = VECTOR ( 'NONE', #322, 1000.000000000000000 ) ;
#202 = ORIENTED_EDGE ( 'NONE', *, *, #41, .F. ) ;
#203 =( NAMED_UNIT ( * ) SI_UNIT ( $, .STERADIAN. ) SOLID_ANGLE_UNIT ( ) );
#204 = VERTEX_POINT ( 'NONE', #339 ) ;
#205 = ADVANCED_FACE ( 'NONE', ( #5 ), #260, .F. ) ;
#206 = ORIENTED_EDGE ( 'NONE', *, *, #312, .T. ) ;
#207 = LINE ( 'NONE', #313, #231 ) ;
#208 =( LENGTH_UNIT ( ) NAMED_UNIT ( * ) SI_UNIT ( .MILLI., .METRE. ) );
#209 = VECTOR ( 'NONE', #78, 1000.000000000000100 ) ;
#210 = LINE ( 'NONE', #219, #14 ) ;
#211 = CARTESIAN_POINT ( 'NONE',  ( 4.000000000000000000, -2.999999999999859700, 0.9458963666369412100 ) ) ;
#212 = ADVANCED_FACE ( 'NONE', ( #168, #251 ), #103, .T. ) ;
#213 = ORIENTED_EDGE ( 'NONE', *, *, #119, .F. ) ;
#214 = EDGE_CURVE ( 'NONE', #148, #191, #134, .T. ) ;
#215 = SURFACE_SIDE_STYLE ('',( #39 ) ) ;
#216 = CARTESIAN_POINT ( 'NONE',  ( 1.224646799147363400E-017, -1.898202538678397200E-016, 1.549999999999999800 ) ) ;
#217 = VECTOR ( 'NONE', #130, 1000.000000000000000 ) ;
#218 = PRODUCT_DEFINITION ( 'UNKNOWN', '', #234, #96 ) ;
#219 = CARTESIAN_POINT ( 'NONE',  ( 0.0000000000000000000, -2.999999999999857900, -7.955000000000000100 ) ) ;
#220 = ORIENTED_EDGE ( 'NONE', *, *, #166, .F. ) ;
#221 = VECTOR ( 'NONE', #40, 1000.000000000000000 ) ;
#222 = CARTESIAN_POINT ( 'NONE',  ( 0.0000000000000000000, 3.000000000000142600, 7.955000000000000100 ) ) ;
#223 = AXIS2_PLACEMENT_3D ( 'NONE', #108, #22, #37 ) ;
#224 = ORIENTED_EDGE ( 'NONE', *, *, #143, .F. ) ;
#225 = ORIENTED_EDGE ( 'NONE', *, *, #265, .F. ) ;
#226 = CARTESIAN_POINT ( 'NONE',  ( 4.000000000000000000, 2.136530645425331400, 8.281622369470751400 ) ) ;
#227 = ORIENTED_EDGE ( 'NONE', *, *, #181, .F. ) ;
#228 = LINE ( 'NONE', #54, #25 ) ;
#229 = PLANE ( 'NONE',  #323 ) ;
#230 = EDGE_CURVE ( 'NONE', #152, #139, #57, .T. ) ;
#231 = VECTOR ( 'NONE', #314, 1000.000000000000000 ) ;
#232 = DIRECTION ( 'NONE',  ( -1.000000000000000000, 0.0000000000000000000, 0.0000000000000000000 ) ) ;
#233 = ADVANCED_FACE ( 'NONE', ( #7 ), #266, .F. ) ;
#234 = PRODUCT_DEFINITION_FORMATION_WITH_SPECIFIED_SOURCE ( 'ANY', '', #17, .NOT_KNOWN. ) ;
#235 = LINE ( 'NONE', #72, #321 ) ;
#236 = CARTESIAN_POINT ( 'NONE',  ( 4.000000000000000000, 2.136530645425331400, 8.281622369470751400 ) ) ;
#237 = DIRECTION ( 'NONE',  ( 0.0000000000000000000, 0.0000000000000000000, -1.000000000000000000 ) ) ;
#238 = ORIENTED_EDGE ( 'NONE', *, *, #41, .T. ) ;
#239 = DIRECTION ( 'NONE',  ( 0.0000000000000000000, 0.0000000000000000000, 1.000000000000000000 ) ) ;
#240 = DIRECTION ( 'NONE',  ( -1.000000000000000000, 0.0000000000000000000, 0.0000000000000000000 ) ) ;
#241 = AXIS2_PLACEMENT_3D ( 'NONE', #153, #310, #109 ) ;
#242 = CARTESIAN_POINT ( 'NONE',  ( 1.224646799147363400E-017, 0.0000000000000000000, 0.0000000000000000000 ) ) ;
#243 = SURFACE_STYLE_USAGE ( .BOTH. , #215 ) ;
#244 = EDGE_CURVE ( 'NONE', #152, #125, #235, .T. ) ;
#245 = VECTOR ( 'NONE', #26, 1000.000000000000000 ) ;
#246 = CIRCLE ( 'NONE', #175, 1.549999999999999200 ) ;
#247 = EDGE_CURVE ( 'NONE', #139, #148, #197, .T. ) ;
#248 = EDGE_CURVE ( 'NONE', #327, #60, #118, .T. ) ;
#249 = DIRECTION ( 'NONE',  ( 0.0000000000000000000, 0.9353205878449268900, -0.3538013538038264300 ) ) ;
#250 = PRODUCT_RELATED_PRODUCT_CATEGORY ( 'part', '', ( #17 ) ) ;
#251 = FACE_OUTER_BOUND ( 'NONE', #185, .T. ) ;
#252 = ORIENTED_EDGE ( 'NONE', *, *, #263, .F. ) ;
#253 = COLOUR_RGB ( '',0.9372549019607843100, 0.9607843137254902200, 1.000000000000000000 ) ;
#254 = CARTESIAN_POINT ( 'NONE',  ( 0.0000000000000000000, 3.000000000000142600, 7.955000000000000100 ) ) ;
#255 = EDGE_LOOP ( 'NONE', ( #64, #279, #202, #66 ) ) ;
#256 = CARTESIAN_POINT ( 'NONE',  ( 4.000000000000000000, -2.136530645425046800, -8.281622369470749600 ) ) ;
#257 = CARTESIAN_POINT ( 'NONE',  ( 4.000000000000000000, 3.000000000000144300, -0.9458963666369342200 ) ) ;
#258 = AXIS2_PLACEMENT_3D ( 'NONE', #88, #135, #176 ) ;
#259 = ORIENTED_EDGE ( 'NONE', *, *, #214, .T. ) ;
#260 = CYLINDRICAL_SURFACE ( 'NONE', #241, 1.549999999999999400 ) ;
#261 = LINE ( 'NONE', #145, #68 ) ;
#262 = ORIENTED_EDGE ( 'NONE', *, *, #120, .T. ) ;
#263 = EDGE_CURVE ( 'NONE', #329, #316, #328, .T. ) ;
#264 = DIRECTION ( 'NONE',  ( 0.0000000000000000000, -1.000000000000000000, -1.948931213803408800E-016 ) ) ;
#265 = EDGE_CURVE ( 'NONE', #80, #94, #319, .T. ) ;
#266 = PLANE ( 'NONE',  #290 ) ;
#267 = APPLICATION_PROTOCOL_DEFINITION ( 'draft international standard', 'automotive_design', 1998, #298 ) ;
#268 = FACE_OUTER_BOUND ( 'NONE', #47, .T. ) ;
#269 = DIRECTION ( 'NONE',  ( 0.0000000000000000000, 0.0000000000000000000, 1.000000000000000000 ) ) ;
#270 = LINE ( 'NONE', #128, #221 ) ;
#271 = FACE_OUTER_BOUND ( 'NONE', #36, .T. ) ;
#272 = CARTESIAN_POINT ( 'NONE',  ( 1.224646799147363400E-017, 0.0000000000000000000, -1.549999999999999600 ) ) ;
#273 = VECTOR ( 'NONE', #249, 1000.000000000000000 ) ;
#274 = SURFACE_STYLE_FILL_AREA ( #117 ) ;
#275 = ORIENTED_EDGE ( 'NONE', *, *, #248, .T. ) ;
#276 =( LENGTH_UNIT ( ) NAMED_UNIT ( * ) SI_UNIT ( .MILLI., .METRE. ) );
#277 = CARTESIAN_POINT ( 'NONE',  ( 4.000000000000000000, -2.999999999999857900, -7.955000000000000100 ) ) ;
#278 = AXIS2_PLACEMENT_3D ( 'NONE', #242, #99, #174 ) ;
#279 = ORIENTED_EDGE ( 'NONE', *, *, #244, .F. ) ;
#280 = CARTESIAN_POINT ( 'NONE',  ( 1.224646799147363400E-017, 0.0000000000000000000, 0.0000000000000000000 ) ) ;
#281 = EDGE_LOOP ( 'NONE', ( #98, #187 ) ) ;
#282 = ORIENTED_EDGE ( 'NONE', *, *, #230, .F. ) ;
#283 = ADVANCED_FACE ( 'NONE', ( #77 ), #229, .F. ) ;
#284 = ORIENTED_EDGE ( 'NONE', *, *, #6, .T. ) ;
#285 = APPLICATION_CONTEXT ( 'automotive_design' ) ;
#286 = VERTEX_POINT ( 'NONE', #101 ) ;
#287 = CARTESIAN_POINT ( 'NONE',  ( 0.0000000000000000000, 3.000000000000144300, -0.9458963666369342200 ) ) ;
#288 =( LENGTH_UNIT ( ) NAMED_UNIT ( * ) SI_UNIT ( .MILLI., .METRE. ) );
#289 =( NAMED_UNIT ( * ) SI_UNIT ( $, .STERADIAN. ) SOLID_ANGLE_UNIT ( ) );
#290 = AXIS2_PLACEMENT_3D ( 'NONE', #257, #264, #184 ) ;
#291 = VECTOR ( 'NONE', #16, 1000.000000000000200 ) ;
#292 = DIRECTION ( 'NONE',  ( 0.0000000000000000000, -1.948931213803408800E-016, 1.000000000000000000 ) ) ;
#293 = ORIENTED_EDGE ( 'NONE', *, *, #120, .F. ) ;
#294 = DIRECTION ( 'NONE',  ( 0.0000000000000000000, -0.3538013538038278800, -0.9353205878449264400 ) ) ;
#295 = ADVANCED_BREP_SHAPE_REPRESENTATION ( 'CUT-822-03', ( #114, #198 ), #34 ) ;
#296 = EDGE_CURVE ( 'NONE', #148, #95, #261, .T. ) ;
#297 = ORIENTED_EDGE ( 'NONE', *, *, #332, .F. ) ;
#298 = APPLICATION_CONTEXT ( 'automotive_design' ) ;
#299 = DIRECTION ( 'NONE',  ( 0.0000000000000000000, 0.0000000000000000000, -1.000000000000000000 ) ) ;
#300 = FACE_BOUND ( 'NONE', #281, .T. ) ;
#301 = DIRECTION ( 'NONE',  ( 0.0000000000000000000, 0.3538013538038264300, 0.9353205878449268900 ) ) ;
#302 = UNCERTAINTY_MEASURE_WITH_UNIT (LENGTH_MEASURE( 1.000000000000000100E-005 ), #276, 'distance_accuracy_value', 'NONE');
#303 = ADVANCED_FACE ( 'NONE', ( #138 ), #35, .F. ) ;
#304 = ORIENTED_EDGE ( 'NONE', *, *, #247, .F. ) ;
#305 = DIRECTION ( 'NONE',  ( 0.0000000000000000000, 0.5735764363510442700, 0.8191520442889931300 ) ) ;
#306 = ORIENTED_EDGE ( 'NONE', *, *, #12, .F. ) ;
#307 = ORIENTED_EDGE ( 'NONE', *, *, #196, .T. ) ;
#308 = ADVANCED_FACE ( 'NONE', ( #268 ), #161, .F. ) ;
#309 = DIRECTION ( 'NONE',  ( 0.0000000000000000000, 0.9353205878449268900, -0.3538013538038264300 ) ) ;
#310 = DIRECTION ( 'NONE',  ( -1.000000000000000000, 0.0000000000000000000, 0.0000000000000000000 ) ) ;
#311 = CIRCLE ( 'NONE', #158, 1.549999999999999600 ) ;
#312 = EDGE_CURVE ( 'NONE', #60, #75, #49, .T. ) ;
#313 = CARTESIAN_POINT ( 'NONE',  ( 4.000000000000000000, 2.136530645425331400, 8.281622369470751400 ) ) ;
#314 = DIRECTION ( 'NONE',  ( -1.000000000000000000, 0.0000000000000000000, 0.0000000000000000000 ) ) ;
#315 = EDGE_LOOP ( 'NONE', ( #10, #106, #304, #307 ) ) ;
#316 = VERTEX_POINT ( 'NONE', #226 ) ;
#317 = DIRECTION ( 'NONE',  ( 0.0000000000000000000, 0.8191520442889931300, -0.5735764363510442700 ) ) ;
#318 = VECTOR ( 'NONE', #76, 1000.000000000000000 ) ;
#319 = LINE ( 'NONE', #172, #201 ) ;
#320 = CARTESIAN_POINT ( 'NONE',  ( 4.000000000000000000, 3.000000000000142600, 7.955000000000000100 ) ) ;
#321 = VECTOR ( 'NONE', #51, 1000.000000000000000 ) ;
#322 = DIRECTION ( 'NONE',  ( -1.000000000000000000, 0.0000000000000000000, 0.0000000000000000000 ) ) ;
#323 = AXIS2_PLACEMENT_3D ( 'NONE', #58, #301, #89 ) ;
#324 = ORIENTED_EDGE ( 'NONE', *, *, #247, .T. ) ;
#325 = ORIENTED_EDGE ( 'NONE', *, *, #163, .F. ) ;
#326 = DIRECTION ( 'NONE',  ( 0.0000000000000000000, -0.5735764363510442700, -0.8191520442889931300 ) ) ;
#327 = VERTEX_POINT ( 'NONE', #182 ) ;
#328 = LINE ( 'NONE', #122, #59 ) ;
#329 = VERTEX_POINT ( 'NONE', #320 ) ;
#330 = VECTOR ( 'NONE', #340, 1000.000000000000000 ) ;
#331 = AXIS2_PLACEMENT_3D ( 'NONE', #53, #28, #102 ) ;
#332 = EDGE_CURVE ( 'NONE', #95, #327, #188, .T. ) ;
#333 = ORIENTED_EDGE ( 'NONE', *, *, #263, .T. ) ;
#334 = DIRECTION ( 'NONE',  ( 0.0000000000000000000, -0.9353205878449263300, 0.3538013538038279300 ) ) ;
#335 = EDGE_LOOP ( 'NONE', ( #341, #31, #282, #131 ) ) ;
#336 = DIRECTION ( 'NONE',  ( -1.000000000000000000, 0.0000000000000000000, 0.0000000000000000000 ) ) ;
#337 = LINE ( 'NONE', #126, #291 ) ;
#338 = EDGE_LOOP ( 'NONE', ( #275, #220, #224, #133 ) ) ;
#339 = CARTESIAN_POINT ( 'NONE',  ( 0.0000000000000000000, -2.999999999999857900, -7.955000000000000100 ) ) ;
#340 = DIRECTION ( 'NONE',  ( -1.000000000000000000, 0.0000000000000000000, 0.0000000000000000000 ) ) ;
#341 = ORIENTED_EDGE ( 'NONE', *, *, #24, .T. ) ;
#342 = EDGE_LOOP ( 'NONE', ( #262, #297, #86, #259 ) ) ;
ENDSEC;
END-ISO-10303-21;
