ISO-10303-21;
HEADER;
FILE_DESCRIPTION (( 'STEP AP214' ),
    '1' );
FILE_NAME ('CUT-822-04.step',
    '2017-06-09T12:54:08',
    ( 'e00158' ),
    ( 'Microsoft' ),
    'SwSTEP 2.0',
    'SolidWorks 2016',
    '' );
FILE_SCHEMA (( 'AUTOMOTIVE_DESIGN' ));
ENDSEC;

DATA;
#1 = ORIENTED_EDGE ( 'NONE', *, *, #47, .T. ) ;
#2 = CARTESIAN_POINT ( 'NONE',  ( 0.0000000000000000000, -2.999999999999857900, -7.955000000000000100 ) ) ;
#3 = EDGE_CURVE ( 'NONE', #215, #232, #148, .T. ) ;
#4 = APPLICATION_CONTEXT ( 'automotive_design' ) ;
#5 = PLANE ( 'NONE',  #189 ) ;
#6 = CARTESIAN_POINT ( 'NONE',  ( 6.000000000000000000, 3.000000000000144300, -0.9458963666369342200 ) ) ;
#7 = VECTOR ( 'NONE', #260, 1000.000000000000000 ) ;
#8 =( GEOMETRIC_REPRESENTATION_CONTEXT ( 3 ) GLOBAL_UNCERTAINTY_ASSIGNED_CONTEXT ( ( #175 ) ) GLOBAL_UNIT_ASSIGNED_CONTEXT ( ( #86, #237, #245 ) ) REPRESENTATION_CONTEXT ( 'NONE', 'WORKASPACE' ) );
#9 = DIRECTION ( 'NONE',  ( 0.0000000000000000000, 0.9353205878449268900, -0.3538013538038264300 ) ) ;
#10 = DIRECTION ( 'NONE',  ( -1.000000000000000000, 0.0000000000000000000, 0.0000000000000000000 ) ) ;
#11 = CARTESIAN_POINT ( 'NONE',  ( 6.000000000000000000, -2.999999999999859700, 0.9458963666369412100 ) ) ;
#12 = DIRECTION ( 'NONE',  ( -1.000000000000000000, 0.0000000000000000000, 0.0000000000000000000 ) ) ;
#13 = PLANE ( 'NONE',  #218 ) ;
#14 = EDGE_CURVE ( 'NONE', #274, #236, #142, .T. ) ;
#15 = DIRECTION ( 'NONE',  ( -1.000000000000000000, 0.0000000000000000000, 0.0000000000000000000 ) ) ;
#16 = UNCERTAINTY_MEASURE_WITH_UNIT (LENGTH_MEASURE( 1.000000000000000100E-005 ), #129, 'distance_accuracy_value', 'NONE');
#17 = ADVANCED_FACE ( 'NONE', ( #151 ), #30, .F. ) ;
#18 = LINE ( 'NONE', #29, #7 ) ;
#19 = DIRECTION ( 'NONE',  ( 0.0000000000000000000, 0.9353205878449263300, -0.3538013538038278800 ) ) ;
#20 = EDGE_CURVE ( 'NONE', #236, #172, #131, .T. ) ;
#21 = PLANE ( 'NONE',  #223 ) ;
#22 = FACE_OUTER_BOUND ( 'NONE', #177, .T. ) ;
#23 = EDGE_CURVE ( 'NONE', #256, #329, #134, .T. ) ;
#24 = DIRECTION ( 'NONE',  ( 0.0000000000000000000, -1.948931213803407000E-016, 1.000000000000000000 ) ) ;
#25 = CARTESIAN_POINT ( 'NONE',  ( 0.0000000000000000000, 3.000000000000142600, 7.955000000000000100 ) ) ;
#26 = DIRECTION ( 'NONE',  ( 0.0000000000000000000, -0.8191520442889934600, 0.5735764363510439400 ) ) ;
#27 = CARTESIAN_POINT ( 'NONE',  ( 6.000000000000000000, -2.999999999999857900, -7.955000000000000100 ) ) ;
#28 = DIRECTION ( 'NONE',  ( 0.0000000000000000000, 0.3538013538038264300, 0.9353205878449268900 ) ) ;
#29 = CARTESIAN_POINT ( 'NONE',  ( 0.0000000000000000000, -1.898202538678396700E-016, 1.549999999999999400 ) ) ;
#30 = PLANE ( 'NONE',  #197 ) ;
#31 = AXIS2_PLACEMENT_3D ( 'NONE', #338, #243, #212 ) ;
#32 =( NAMED_UNIT ( * ) SI_UNIT ( $, .STERADIAN. ) SOLID_ANGLE_UNIT ( ) );
#33 = LINE ( 'NONE', #285, #135 ) ;
#34 = DIRECTION ( 'NONE',  ( 0.0000000000000000000, 0.8191520442889931300, -0.5735764363510441600 ) ) ;
#35 = VECTOR ( 'NONE', #138, 999.9999999999998900 ) ;
#36 = CARTESIAN_POINT ( 'NONE',  ( 6.000000000000000000, 3.000000000000142600, 7.955000000000000100 ) ) ;
#37 = FACE_OUTER_BOUND ( 'NONE', #267, .T. ) ;
#38 = VECTOR ( 'NONE', #133, 1000.000000000000000 ) ;
#39 = EDGE_CURVE ( 'NONE', #201, #215, #132, .T. ) ;
#40 = VECTOR ( 'NONE', #149, 1000.000000000000000 ) ;
#41 = EDGE_CURVE ( 'NONE', #217, #185, #124, .T. ) ;
#42 = CIRCLE ( 'NONE', #337, 1.549999999999999600 ) ;
#43 = VECTOR ( 'NONE', #327, 1000.000000000000100 ) ;
#44 = LINE ( 'NONE', #171, #40 ) ;
#45 = ADVANCED_FACE ( 'NONE', ( #128 ), #21, .F. ) ;
#46 = FILL_AREA_STYLE_COLOUR ( '', #323 ) ;
#47 = EDGE_CURVE ( 'NONE', #191, #158, #107, .T. ) ;
#48 = CYLINDRICAL_SURFACE ( 'NONE', #31, 1.549999999999999400 ) ;
#49 = LINE ( 'NONE', #36, #43 ) ;
#50 = VECTOR ( 'NONE', #181, 1000.000000000000000 ) ;
#51 = AXIS2_PLACEMENT_3D ( 'NONE', #60, #316, #90 ) ;
#52 = FACE_OUTER_BOUND ( 'NONE', #203, .T. ) ;
#53 = LINE ( 'NONE', #154, #111 ) ;
#54 = SHAPE_DEFINITION_REPRESENTATION ( #270, #84 ) ;
#55 = MANIFOLD_SOLID_BREP ( 'Kombinieren1', #251 ) ;
#56 = CARTESIAN_POINT ( 'NONE',  ( 6.000000000000000000, 3.000000000000144300, -0.9458963666369342200 ) ) ;
#57 = EDGE_CURVE ( 'NONE', #201, #269, #74, .T. ) ;
#58 = VECTOR ( 'NONE', #9, 1000.000000000000000 ) ;
#59 = LINE ( 'NONE', #293, #35 ) ;
#60 = CARTESIAN_POINT ( 'NONE',  ( 0.0000000000000000000, 0.0000000000000000000, 0.0000000000000000000 ) ) ;
#61 = DIRECTION ( 'NONE',  ( 0.0000000000000000000, -0.9353205878449268900, 0.3538013538038264300 ) ) ;
#62 = AXIS2_PLACEMENT_3D ( 'NONE', #334, #82, #169 ) ;
#63 = VECTOR ( 'NONE', #108, 1000.000000000000000 ) ;
#64 = LINE ( 'NONE', #155, #58 ) ;
#65 = VECTOR ( 'NONE', #15, 1000.000000000000000 ) ;
#66 = LINE ( 'NONE', #6, #63 ) ;
#67 = LINE ( 'NONE', #2, #38 ) ;
#68 = FILL_AREA_STYLE ('',( #46 ) ) ;
#69 = LINE ( 'NONE', #121, #65 ) ;
#70 = DIRECTION ( 'NONE',  ( 1.000000000000000000, 0.0000000000000000000, -0.0000000000000000000 ) ) ;
#71 = DIRECTION ( 'NONE',  ( -1.000000000000000000, 0.0000000000000000000, 0.0000000000000000000 ) ) ;
#72 = DIRECTION ( 'NONE',  ( -1.000000000000000000, 0.0000000000000000000, 0.0000000000000000000 ) ) ;
#73 = FACE_OUTER_BOUND ( 'NONE', #275, .T. ) ;
#74 = CIRCLE ( 'NONE', #296, 1.549999999999998900 ) ;
#75 = EDGE_CURVE ( 'NONE', #269, #201, #106, .T. ) ;
#76 = CARTESIAN_POINT ( 'NONE',  ( 6.000000000000000000, -2.999999999999859700, 0.9458963666369412100 ) ) ;
#77 = PRODUCT_DEFINITION ( 'UNKNOWN', '', #88, #87 ) ;
#78 = SURFACE_SIDE_STYLE ('',( #320 ) ) ;
#79 = CARTESIAN_POINT ( 'NONE',  ( 1.224646799147363400E-017, 0.0000000000000000000, -1.549999999999999600 ) ) ;
#80 = EDGE_CURVE ( 'NONE', #191, #256, #69, .T. ) ;
#81 = AXIS2_PLACEMENT_3D ( 'NONE', #225, #26, #147 ) ;
#82 = DIRECTION ( 'NONE',  ( 0.0000000000000000000, 0.0000000000000000000, 1.000000000000000000 ) ) ;
#83 = CARTESIAN_POINT ( 'NONE',  ( 6.000000000000000000, 3.000000000000142600, 7.955000000000000100 ) ) ;
#84 = ADVANCED_BREP_SHAPE_REPRESENTATION ( 'CUT-822-04', ( #55, #62 ), #233 ) ;
#85 = EDGE_CURVE ( 'NONE', #158, #295, #66, .T. ) ;
#86 =( LENGTH_UNIT ( ) NAMED_UNIT ( * ) SI_UNIT ( .MILLI., .METRE. ) );
#87 = PRODUCT_DEFINITION_CONTEXT ( 'detailed design', #4, 'design' ) ;
#88 = PRODUCT_DEFINITION_FORMATION_WITH_SPECIFIED_SOURCE ( 'ANY', '', #339, .NOT_KNOWN. ) ;
#89 = CARTESIAN_POINT ( 'NONE',  ( 6.000000000000000000, 3.000000000000142600, 7.955000000000000100 ) ) ;
#90 = DIRECTION ( 'NONE',  ( 0.0000000000000000000, 0.0000000000000000000, -1.000000000000000000 ) ) ;
#91 = EDGE_CURVE ( 'NONE', #187, #191, #64, .T. ) ;
#92 = FACE_BOUND ( 'NONE', #272, .T. ) ;
#93 = ADVANCED_FACE ( 'NONE', ( #52 ), #48, .F. ) ;
#94 = VECTOR ( 'NONE', #99, 1000.000000000000000 ) ;
#95 = DIRECTION ( 'NONE',  ( 0.0000000000000000000, 0.5735764363510438300, 0.8191520442889933500 ) ) ;
#96 = LINE ( 'NONE', #56, #113 ) ;
#97 = DIRECTION ( 'NONE',  ( 0.0000000000000000000, 1.948931213803408800E-016, -1.000000000000000000 ) ) ;
#98 = PRESENTATION_STYLE_ASSIGNMENT (( #265 ) ) ;
#99 = DIRECTION ( 'NONE',  ( -1.000000000000000000, 0.0000000000000000000, 0.0000000000000000000 ) ) ;
#100 = COLOUR_RGB ( '',0.9372549019607843100, 0.9607843137254902200, 1.000000000000000000 ) ;
#101 = LINE ( 'NONE', #281, #50 ) ;
#102 = CARTESIAN_POINT ( 'NONE',  ( 0.0000000000000000000, -2.999999999999857900, -7.955000000000000100 ) ) ;
#103 = CARTESIAN_POINT ( 'NONE',  ( 1.224646799147363400E-017, 0.0000000000000000000, 0.0000000000000000000 ) ) ;
#104 = EDGE_CURVE ( 'NONE', #172, #152, #53, .T. ) ;
#105 = CARTESIAN_POINT ( 'NONE',  ( 6.000000000000000000, 2.136530645425331400, 8.281622369470751400 ) ) ;
#106 = CIRCLE ( 'NONE', #318, 1.549999999999998900 ) ;
#107 = LINE ( 'NONE', #114, #117 ) ;
#108 = DIRECTION ( 'NONE',  ( 0.0000000000000000000, -1.948931213803408800E-016, 1.000000000000000000 ) ) ;
#109 = PRODUCT_RELATED_PRODUCT_CATEGORY ( 'part', '', ( #339 ) ) ;
#110 = CARTESIAN_POINT ( 'NONE',  ( 6.000000000000000000, -2.136530645425046800, -8.281622369470749600 ) ) ;
#111 = VECTOR ( 'NONE', #198, 1000.000000000000000 ) ;
#112 = SURFACE_STYLE_FILL_AREA ( #130 ) ;
#113 = VECTOR ( 'NONE', #312, 1000.000000000000000 ) ;
#114 = CARTESIAN_POINT ( 'NONE',  ( 6.000000000000000000, -2.136530645425046800, -8.281622369470749600 ) ) ;
#115 = EDGE_CURVE ( 'NONE', #295, #274, #49, .T. ) ;
#116 = VECTOR ( 'NONE', #192, 1000.000000000000100 ) ;
#117 = VECTOR ( 'NONE', #141, 1000.000000000000200 ) ;
#118 = EDGE_CURVE ( 'NONE', #236, #187, #44, .T. ) ;
#119 = APPLICATION_PROTOCOL_DEFINITION ( 'draft international standard', 'automotive_design', 1998, #4 ) ;
#120 = AXIS2_PLACEMENT_3D ( 'NONE', #184, #70, #136 ) ;
#121 = CARTESIAN_POINT ( 'NONE',  ( 6.000000000000000000, -2.136530645425046800, -8.281622369470749600 ) ) ;
#122 = ORIENTED_EDGE ( 'NONE', *, *, #23, .F. ) ;
#123 = VECTOR ( 'NONE', #294, 1000.000000000000000 ) ;
#124 = LINE ( 'NONE', #340, #116 ) ;
#125 = ORIENTED_EDGE ( 'NONE', *, *, #306, .F. ) ;
#126 = EDGE_CURVE ( 'NONE', #185, #172, #59, .T. ) ;
#127 = VECTOR ( 'NONE', #95, 1000.000000000000200 ) ;
#128 = FACE_OUTER_BOUND ( 'NONE', #262, .T. ) ;
#129 =( LENGTH_UNIT ( ) NAMED_UNIT ( * ) SI_UNIT ( .MILLI., .METRE. ) );
#130 = FILL_AREA_STYLE ('',( #271 ) ) ;
#131 = LINE ( 'NONE', #76, #144 ) ;
#132 = LINE ( 'NONE', #278, #123 ) ;
#133 = DIRECTION ( 'NONE',  ( 0.0000000000000000000, 0.9353205878449268900, -0.3538013538038264300 ) ) ;
#134 = LINE ( 'NONE', #287, #127 ) ;
#135 = VECTOR ( 'NONE', #219, 1000.000000000000000 ) ;
#136 = DIRECTION ( 'NONE',  ( 0.0000000000000000000, 0.0000000000000000000, 1.000000000000000000 ) ) ;
#137 = APPLICATION_CONTEXT ( 'automotive_design' ) ;
#138 = DIRECTION ( 'NONE',  ( 0.0000000000000000000, -0.5735764363510442700, -0.8191520442889931300 ) ) ;
#139 = VECTOR ( 'NONE', #143, 999.9999999999998900 ) ;
#140 = PLANE ( 'NONE',  #120 ) ;
#141 = DIRECTION ( 'NONE',  ( 0.0000000000000000000, 0.5735764363510438300, 0.8191520442889933500 ) ) ;
#142 = LINE ( 'NONE', #297, #139 ) ;
#143 = DIRECTION ( 'NONE',  ( 0.0000000000000000000, -0.5735764363510442700, -0.8191520442889931300 ) ) ;
#144 = VECTOR ( 'NONE', #12, 1000.000000000000000 ) ;
#145 = AXIS2_PLACEMENT_3D ( 'NONE', #162, #161, #230 ) ;
#146 = DIRECTION ( 'NONE',  ( 0.0000000000000000000, -0.3538013538038279300, -0.9353205878449264400 ) ) ;
#147 = DIRECTION ( 'NONE',  ( 0.0000000000000000000, -0.5735764363510438300, -0.8191520442889933500 ) ) ;
#148 = CIRCLE ( 'NONE', #145, 1.549999999999999600 ) ;
#149 = DIRECTION ( 'NONE',  ( 0.0000000000000000000, 1.948931213803407500E-016, -1.000000000000000000 ) ) ;
#150 = ADVANCED_FACE ( 'NONE', ( #37 ), #317, .F. ) ;
#151 = FACE_OUTER_BOUND ( 'NONE', #342, .T. ) ;
#152 = VERTEX_POINT ( 'NONE', #102 ) ;
#153 = LINE ( 'NONE', #105, #94 ) ;
#154 = CARTESIAN_POINT ( 'NONE',  ( 0.0000000000000000000, -2.999999999999859700, 0.9458963666369412100 ) ) ;
#155 = CARTESIAN_POINT ( 'NONE',  ( 6.000000000000000000, -2.999999999999857900, -7.955000000000000100 ) ) ;
#156 = EDGE_CURVE ( 'NONE', #232, #215, #42, .T. ) ;
#157 = AXIS2_PLACEMENT_3D ( 'NONE', #27, #28, #61 ) ;
#158 = VERTEX_POINT ( 'NONE', #199 ) ;
#159 = VECTOR ( 'NONE', #194, 1000.000000000000000 ) ;
#160 = PLANE ( 'NONE',  #157 ) ;
#161 = DIRECTION ( 'NONE',  ( -1.000000000000000000, 0.0000000000000000000, 0.0000000000000000000 ) ) ;
#162 = CARTESIAN_POINT ( 'NONE',  ( 1.224646799147363400E-017, 0.0000000000000000000, 0.0000000000000000000 ) ) ;
#163 = ORIENTED_EDGE ( 'NONE', *, *, #23, .T. ) ;
#164 = DIRECTION ( 'NONE',  ( 0.0000000000000000000, 0.0000000000000000000, 1.000000000000000000 ) ) ;
#165 = ORIENTED_EDGE ( 'NONE', *, *, #324, .T. ) ;
#166 = CARTESIAN_POINT ( 'NONE',  ( 6.000000000000000000, 3.000000000000142600, 7.955000000000000100 ) ) ;
#167 = EDGE_LOOP ( 'NONE', ( #229, #173, #196, #246, #298, #122 ) ) ;
#168 = ORIENTED_EDGE ( 'NONE', *, *, #39, .T. ) ;
#169 = DIRECTION ( 'NONE',  ( 1.000000000000000000, 0.0000000000000000000, 0.0000000000000000000 ) ) ;
#170 = ORIENTED_EDGE ( 'NONE', *, *, #305, .F. ) ;
#171 = CARTESIAN_POINT ( 'NONE',  ( 6.000000000000000000, -2.999999999999859700, 0.9458963666369412100 ) ) ;
#172 = VERTEX_POINT ( 'NONE', #288 ) ;
#173 = ORIENTED_EDGE ( 'NONE', *, *, #104, .F. ) ;
#174 = ORIENTED_EDGE ( 'NONE', *, *, #91, .T. ) ;
#175 = UNCERTAINTY_MEASURE_WITH_UNIT (LENGTH_MEASURE( 1.000000000000000100E-005 ), #86, 'distance_accuracy_value', 'NONE');
#176 = EDGE_LOOP ( 'NONE', ( #165, #291, #205, #247 ) ) ;
#177 = EDGE_LOOP ( 'NONE', ( #163, #170, #178, #335 ) ) ;
#178 = ORIENTED_EDGE ( 'NONE', *, *, #47, .F. ) ;
#179 = ORIENTED_EDGE ( 'NONE', *, *, #118, .T. ) ;
#180 = LINE ( 'NONE', #166, #159 ) ;
#181 = DIRECTION ( 'NONE',  ( -1.000000000000000000, 0.0000000000000000000, 0.0000000000000000000 ) ) ;
#182 = EDGE_CURVE ( 'NONE', #329, #217, #33, .T. ) ;
#183 = PRODUCT_CONTEXT ( 'NONE', #137, 'mechanical' ) ;
#184 = CARTESIAN_POINT ( 'NONE',  ( 6.000000000000000000, 0.0000000000000000000, 0.0000000000000000000 ) ) ;
#185 = VERTEX_POINT ( 'NONE', #214 ) ;
#186 = DIRECTION ( 'NONE',  ( 0.0000000000000000000, 0.0000000000000000000, -1.000000000000000000 ) ) ;
#187 = VERTEX_POINT ( 'NONE', #253 ) ;
#188 =( NAMED_UNIT ( * ) PLANE_ANGLE_UNIT ( ) SI_UNIT ( $, .RADIAN. ) );
#189 = AXIS2_PLACEMENT_3D ( 'NONE', #261, #321, #164 ) ;
#190 = CARTESIAN_POINT ( 'NONE',  ( 6.000000000000000000, 2.136530645425331400, 8.281622369470751400 ) ) ;
#191 = VERTEX_POINT ( 'NONE', #110 ) ;
#192 = DIRECTION ( 'NONE',  ( 0.0000000000000000000, -0.9353205878449263300, 0.3538013538038279300 ) ) ;
#193 = ORIENTED_EDGE ( 'NONE', *, *, #126, .T. ) ;
#194 = DIRECTION ( 'NONE',  ( -1.000000000000000000, 0.0000000000000000000, 0.0000000000000000000 ) ) ;
#195 = ORIENTED_EDGE ( 'NONE', *, *, #118, .F. ) ;
#196 = ORIENTED_EDGE ( 'NONE', *, *, #126, .F. ) ;
#197 = AXIS2_PLACEMENT_3D ( 'NONE', #83, #146, #19 ) ;
#198 = DIRECTION ( 'NONE',  ( 0.0000000000000000000, 1.948931213803407500E-016, -1.000000000000000000 ) ) ;
#199 = CARTESIAN_POINT ( 'NONE',  ( 6.000000000000000000, 3.000000000000144300, -0.9458963666369342200 ) ) ;
#200 = ORIENTED_EDGE ( 'NONE', *, *, #75, .T. ) ;
#201 = VERTEX_POINT ( 'NONE', #326 ) ;
#202 = ADVANCED_FACE ( 'NONE', ( #22 ), #226, .F. ) ;
#203 = EDGE_LOOP ( 'NONE', ( #304, #208, #168, #235 ) ) ;
#204 = ORIENTED_EDGE ( 'NONE', *, *, #216, .T. ) ;
#205 = ORIENTED_EDGE ( 'NONE', *, *, #91, .F. ) ;
#206 = CARTESIAN_POINT ( 'NONE',  ( 6.000000000000000000, -1.898202538678396500E-016, 1.549999999999998900 ) ) ;
#207 = UNCERTAINTY_MEASURE_WITH_UNIT (LENGTH_MEASURE( 1.000000000000000100E-005 ), #299, 'distance_accuracy_value', 'NONE');
#208 = ORIENTED_EDGE ( 'NONE', *, *, #57, .F. ) ;
#209 = ORIENTED_EDGE ( 'NONE', *, *, #115, .T. ) ;
#210 = STYLED_ITEM ( 'NONE', ( #98 ), #55 ) ;
#211 = EDGE_LOOP ( 'NONE', ( #255, #125, #195, #242 ) ) ;
#212 = DIRECTION ( 'NONE',  ( 0.0000000000000000000, 0.0000000000000000000, -1.000000000000000000 ) ) ;
#213 = ORIENTED_EDGE ( 'NONE', *, *, #115, .F. ) ;
#214 = CARTESIAN_POINT ( 'NONE',  ( 0.0000000000000000000, 2.136530645425331400, 8.281622369470751400 ) ) ;
#215 = VERTEX_POINT ( 'NONE', #79 ) ;
#216 = EDGE_CURVE ( 'NONE', #269, #232, #18, .T. ) ;
#217 = VERTEX_POINT ( 'NONE', #25 ) ;
#218 = AXIS2_PLACEMENT_3D ( 'NONE', #313, #250, #24 ) ;
#219 = DIRECTION ( 'NONE',  ( 0.0000000000000000000, -1.948931213803408800E-016, 1.000000000000000000 ) ) ;
#220 = ADVANCED_FACE ( 'NONE', ( #330, #73 ), #140, .T. ) ;
#221 = ORIENTED_EDGE ( 'NONE', *, *, #182, .T. ) ;
#222 = ORIENTED_EDGE ( 'NONE', *, *, #3, .F. ) ;
#223 = AXIS2_PLACEMENT_3D ( 'NONE', #331, #34, #302 ) ;
#224 = ORIENTED_EDGE ( 'NONE', *, *, #227, .F. ) ;
#225 = CARTESIAN_POINT ( 'NONE',  ( 6.000000000000000000, -2.136530645425046800, -8.281622369470749600 ) ) ;
#226 = PLANE ( 'NONE',  #81 ) ;
#227 = EDGE_CURVE ( 'NONE', #295, #217, #180, .T. ) ;
#228 = EDGE_LOOP ( 'NONE', ( #221, #224, #240, #310 ) ) ;
#229 = ORIENTED_EDGE ( 'NONE', *, *, #324, .F. ) ;
#230 = DIRECTION ( 'NONE',  ( 0.0000000000000000000, 0.0000000000000000000, -1.000000000000000000 ) ) ;
#231 = SURFACE_STYLE_USAGE ( .BOTH. , #78 ) ;
#232 = VERTEX_POINT ( 'NONE', #248 ) ;
#233 =( GEOMETRIC_REPRESENTATION_CONTEXT ( 3 ) GLOBAL_UNCERTAINTY_ASSIGNED_CONTEXT ( ( #16 ) ) GLOBAL_UNIT_ASSIGNED_CONTEXT ( ( #129, #188, #32 ) ) REPRESENTATION_CONTEXT ( 'NONE', 'WORKASPACE' ) );
#234 = CARTESIAN_POINT ( 'NONE',  ( 0.0000000000000000000, -2.136530645425046800, -8.281622369470749600 ) ) ;
#235 = ORIENTED_EDGE ( 'NONE', *, *, #3, .T. ) ;
#236 = VERTEX_POINT ( 'NONE', #11 ) ;
#237 =( NAMED_UNIT ( * ) PLANE_ANGLE_UNIT ( ) SI_UNIT ( $, .RADIAN. ) );
#238 = PRESENTATION_LAYER_ASSIGNMENT (  '', '', ( #210 ) ) ;
#239 = CARTESIAN_POINT ( 'NONE',  ( 6.000000000000000000, 0.0000000000000000000, 0.0000000000000000000 ) ) ;
#240 = ORIENTED_EDGE ( 'NONE', *, *, #85, .F. ) ;
#241 = ORIENTED_EDGE ( 'NONE', *, *, #227, .T. ) ;
#242 = ORIENTED_EDGE ( 'NONE', *, *, #20, .T. ) ;
#243 = DIRECTION ( 'NONE',  ( -1.000000000000000000, 0.0000000000000000000, 0.0000000000000000000 ) ) ;
#244 = ADVANCED_FACE ( 'NONE', ( #258 ), #160, .F. ) ;
#245 =( NAMED_UNIT ( * ) SI_UNIT ( $, .STERADIAN. ) SOLID_ANGLE_UNIT ( ) );
#246 = ORIENTED_EDGE ( 'NONE', *, *, #41, .F. ) ;
#247 = ORIENTED_EDGE ( 'NONE', *, *, #306, .T. ) ;
#248 = CARTESIAN_POINT ( 'NONE',  ( 1.224646799147363400E-017, -1.898202538678397200E-016, 1.549999999999999800 ) ) ;
#249 = AXIS2_PLACEMENT_3D ( 'NONE', #290, #315, #97 ) ;
#250 = DIRECTION ( 'NONE',  ( 0.0000000000000000000, 1.000000000000000000, 1.948931213803407000E-016 ) ) ;
#251 = CLOSED_SHELL ( 'NONE', ( #150, #244, #202, #333, #17, #45, #273, #220, #268, #93 ) ) ;
#252 = ORIENTED_EDGE ( 'NONE', *, *, #14, .F. ) ;
#253 = CARTESIAN_POINT ( 'NONE',  ( 6.000000000000000000, -2.999999999999857900, -7.955000000000000100 ) ) ;
#254 = PLANE ( 'NONE',  #249 ) ;
#255 = ORIENTED_EDGE ( 'NONE', *, *, #104, .T. ) ;
#256 = VERTEX_POINT ( 'NONE', #234 ) ;
#257 = CARTESIAN_POINT ( 'NONE',  ( 0.0000000000000000000, 3.000000000000144300, -0.9458963666369342200 ) ) ;
#258 = FACE_OUTER_BOUND ( 'NONE', #176, .T. ) ;
#259 = MECHANICAL_DESIGN_GEOMETRIC_PRESENTATION_REPRESENTATION (  '', ( #210 ), #279 ) ;
#260 = DIRECTION ( 'NONE',  ( -1.000000000000000000, 0.0000000000000000000, 0.0000000000000000000 ) ) ;
#261 = CARTESIAN_POINT ( 'NONE',  ( 0.0000000000000000000, 0.0000000000000000000, 0.0000000000000000000 ) ) ;
#262 = EDGE_LOOP ( 'NONE', ( #193, #266, #252, #286 ) ) ;
#263 = ORIENTED_EDGE ( 'NONE', *, *, #85, .T. ) ;
#264 = FACE_OUTER_BOUND ( 'NONE', #211, .T. ) ;
#265 = SURFACE_STYLE_USAGE ( .BOTH. , #308 ) ;
#266 = ORIENTED_EDGE ( 'NONE', *, *, #20, .F. ) ;
#267 = EDGE_LOOP ( 'NONE', ( #282, #204, #303, #336 ) ) ;
#268 = ADVANCED_FACE ( 'NONE', ( #92, #283 ), #5, .F. ) ;
#269 = VERTEX_POINT ( 'NONE', #206 ) ;
#270 = PRODUCT_DEFINITION_SHAPE ( 'NONE', 'NONE',  #77 ) ;
#271 = FILL_AREA_STYLE_COLOUR ( '', #100 ) ;
#272 = EDGE_LOOP ( 'NONE', ( #222, #325 ) ) ;
#273 = ADVANCED_FACE ( 'NONE', ( #264 ), #13, .F. ) ;
#274 = VERTEX_POINT ( 'NONE', #190 ) ;
#275 = EDGE_LOOP ( 'NONE', ( #174, #1, #263, #209, #301, #179 ) ) ;
#276 = DIRECTION ( 'NONE',  ( 0.0000000000000000000, 0.0000000000000000000, -1.000000000000000000 ) ) ;
#277 = FACE_OUTER_BOUND ( 'NONE', #228, .T. ) ;
#278 = CARTESIAN_POINT ( 'NONE',  ( 0.0000000000000000000, 0.0000000000000000000, -1.549999999999999400 ) ) ;
#279 =( GEOMETRIC_REPRESENTATION_CONTEXT ( 3 ) GLOBAL_UNCERTAINTY_ASSIGNED_CONTEXT ( ( #207 ) ) GLOBAL_UNIT_ASSIGNED_CONTEXT ( ( #299, #280, #284 ) ) REPRESENTATION_CONTEXT ( 'NONE', 'WORKASPACE' ) );
#280 =( NAMED_UNIT ( * ) PLANE_ANGLE_UNIT ( ) SI_UNIT ( $, .RADIAN. ) );
#281 = CARTESIAN_POINT ( 'NONE',  ( 6.000000000000000000, -2.999999999999857900, -7.955000000000000100 ) ) ;
#282 = ORIENTED_EDGE ( 'NONE', *, *, #75, .F. ) ;
#283 = FACE_OUTER_BOUND ( 'NONE', #167, .T. ) ;
#284 =( NAMED_UNIT ( * ) SI_UNIT ( $, .STERADIAN. ) SOLID_ANGLE_UNIT ( ) );
#285 = CARTESIAN_POINT ( 'NONE',  ( 0.0000000000000000000, 3.000000000000144300, -0.9458963666369342200 ) ) ;
#286 = ORIENTED_EDGE ( 'NONE', *, *, #332, .T. ) ;
#287 = CARTESIAN_POINT ( 'NONE',  ( 0.0000000000000000000, -2.136530645425046800, -8.281622369470749600 ) ) ;
#288 = CARTESIAN_POINT ( 'NONE',  ( 0.0000000000000000000, -2.999999999999859700, 0.9458963666369412100 ) ) ;
#289 = DIRECTION ( 'NONE',  ( 0.0000000000000000000, 0.0000000000000000000, -1.000000000000000000 ) ) ;
#290 = CARTESIAN_POINT ( 'NONE',  ( 6.000000000000000000, 3.000000000000144300, -0.9458963666369342200 ) ) ;
#291 = ORIENTED_EDGE ( 'NONE', *, *, #80, .F. ) ;
#292 = STYLED_ITEM ( 'NONE', ( #311 ), #84 ) ;
#293 = CARTESIAN_POINT ( 'NONE',  ( 0.0000000000000000000, 2.136530645425331400, 8.281622369470751400 ) ) ;
#294 = DIRECTION ( 'NONE',  ( -1.000000000000000000, 0.0000000000000000000, 0.0000000000000000000 ) ) ;
#295 = VERTEX_POINT ( 'NONE', #89 ) ;
#296 = AXIS2_PLACEMENT_3D ( 'NONE', #239, #10, #289 ) ;
#297 = CARTESIAN_POINT ( 'NONE',  ( 6.000000000000000000, 2.136530645425331400, 8.281622369470751400 ) ) ;
#298 = ORIENTED_EDGE ( 'NONE', *, *, #182, .F. ) ;
#299 =( LENGTH_UNIT ( ) NAMED_UNIT ( * ) SI_UNIT ( .MILLI., .METRE. ) );
#300 = ORIENTED_EDGE ( 'NONE', *, *, #332, .F. ) ;
#301 = ORIENTED_EDGE ( 'NONE', *, *, #14, .T. ) ;
#302 = DIRECTION ( 'NONE',  ( 0.0000000000000000000, 0.5735764363510441600, 0.8191520442889931300 ) ) ;
#303 = ORIENTED_EDGE ( 'NONE', *, *, #156, .T. ) ;
#304 = ORIENTED_EDGE ( 'NONE', *, *, #216, .F. ) ;
#305 = EDGE_CURVE ( 'NONE', #158, #329, #96, .T. ) ;
#306 = EDGE_CURVE ( 'NONE', #187, #152, #101, .T. ) ;
#307 = PRESENTATION_LAYER_ASSIGNMENT (  '', '', ( #292 ) ) ;
#308 = SURFACE_SIDE_STYLE ('',( #112 ) ) ;
#309 = ORIENTED_EDGE ( 'NONE', *, *, #57, .T. ) ;
#310 = ORIENTED_EDGE ( 'NONE', *, *, #305, .T. ) ;
#311 = PRESENTATION_STYLE_ASSIGNMENT (( #231 ) ) ;
#312 = DIRECTION ( 'NONE',  ( -1.000000000000000000, 0.0000000000000000000, 0.0000000000000000000 ) ) ;
#313 = CARTESIAN_POINT ( 'NONE',  ( 6.000000000000000000, -2.999999999999859700, 0.9458963666369412100 ) ) ;
#314 = APPLICATION_PROTOCOL_DEFINITION ( 'draft international standard', 'automotive_design', 1998, #137 ) ;
#315 = DIRECTION ( 'NONE',  ( 0.0000000000000000000, -1.000000000000000000, -1.948931213803408800E-016 ) ) ;
#316 = DIRECTION ( 'NONE',  ( -1.000000000000000000, 0.0000000000000000000, 0.0000000000000000000 ) ) ;
#317 = CYLINDRICAL_SURFACE ( 'NONE', #51, 1.549999999999999400 ) ;
#318 = AXIS2_PLACEMENT_3D ( 'NONE', #319, #71, #276 ) ;
#319 = CARTESIAN_POINT ( 'NONE',  ( 6.000000000000000000, 0.0000000000000000000, 0.0000000000000000000 ) ) ;
#320 = SURFACE_STYLE_FILL_AREA ( #68 ) ;
#321 = DIRECTION ( 'NONE',  ( 1.000000000000000000, 0.0000000000000000000, -0.0000000000000000000 ) ) ;
#322 = EDGE_LOOP ( 'NONE', ( #309, #200 ) ) ;
#323 = COLOUR_RGB ( '',0.9372549019607843100, 0.9607843137254902200, 1.000000000000000000 ) ;
#324 = EDGE_CURVE ( 'NONE', #152, #256, #67, .T. ) ;
#325 = ORIENTED_EDGE ( 'NONE', *, *, #156, .F. ) ;
#326 = CARTESIAN_POINT ( 'NONE',  ( 6.000000000000000000, 0.0000000000000000000, -1.549999999999998900 ) ) ;
#327 = DIRECTION ( 'NONE',  ( 0.0000000000000000000, -0.9353205878449263300, 0.3538013538038279300 ) ) ;
#328 = MECHANICAL_DESIGN_GEOMETRIC_PRESENTATION_REPRESENTATION (  '', ( #292 ), #8 ) ;
#329 = VERTEX_POINT ( 'NONE', #257 ) ;
#330 = FACE_BOUND ( 'NONE', #322, .T. ) ;
#331 = CARTESIAN_POINT ( 'NONE',  ( 6.000000000000000000, 2.136530645425331400, 8.281622369470751400 ) ) ;
#332 = EDGE_CURVE ( 'NONE', #274, #185, #153, .T. ) ;
#333 = ADVANCED_FACE ( 'NONE', ( #277 ), #254, .F. ) ;
#334 = CARTESIAN_POINT ( 'NONE',  ( 0.0000000000000000000, 0.0000000000000000000, 0.0000000000000000000 ) ) ;
#335 = ORIENTED_EDGE ( 'NONE', *, *, #80, .T. ) ;
#336 = ORIENTED_EDGE ( 'NONE', *, *, #39, .F. ) ;
#337 = AXIS2_PLACEMENT_3D ( 'NONE', #103, #72, #186 ) ;
#338 = CARTESIAN_POINT ( 'NONE',  ( 0.0000000000000000000, 0.0000000000000000000, 0.0000000000000000000 ) ) ;
#339 = PRODUCT ( 'CUT-822-04', 'CUT-822-04', '', ( #183 ) ) ;
#340 = CARTESIAN_POINT ( 'NONE',  ( 0.0000000000000000000, 3.000000000000142600, 7.955000000000000100 ) ) ;
#341 = ORIENTED_EDGE ( 'NONE', *, *, #41, .T. ) ;
#342 = EDGE_LOOP ( 'NONE', ( #341, #300, #213, #241 ) ) ;
ENDSEC;
END-ISO-10303-21;
