ISO-10303-21;
HEADER;
FILE_DESCRIPTION (( 'STEP AP214' ),
    '1' );
FILE_NAME ('CUT-822-05.step',
    '2017-06-09T12:54:09',
    ( 'e00158' ),
    ( 'Microsoft' ),
    'SwSTEP 2.0',
    'SolidWorks 2016',
    '' );
FILE_SCHEMA (( 'AUTOMOTIVE_DESIGN' ));
ENDSEC;

DATA;
#1 = DIRECTION ( 'NONE',  ( 0.0000000000000000000, 0.0000000000000000000, -1.000000000000000000 ) ) ;
#2 = FACE_OUTER_BOUND ( 'NONE', #240, .T. ) ;
#3 = EDGE_CURVE ( 'NONE', #114, #92, #138, .T. ) ;
#4 = ORIENTED_EDGE ( 'NONE', *, *, #34, .T. ) ;
#5 = FACE_OUTER_BOUND ( 'NONE', #132, .T. ) ;
#6 = DIRECTION ( 'NONE',  ( 0.0000000000000000000, -1.948931213803407500E-016, 1.000000000000000000 ) ) ;
#7 = MECHANICAL_DESIGN_GEOMETRIC_PRESENTATION_REPRESENTATION (  '', ( #313 ), #31 ) ;
#8 = CARTESIAN_POINT ( 'NONE',  ( 8.000000000000000000, 3.000000000000144300, -0.9458963666369342200 ) ) ;
#9 = ORIENTED_EDGE ( 'NONE', *, *, #326, .T. ) ;
#10 = DIRECTION ( 'NONE',  ( 0.0000000000000000000, 0.5735764363510442700, 0.8191520442889931300 ) ) ;
#11 = DIRECTION ( 'NONE',  ( 0.0000000000000000000, -0.9353205878449263300, 0.3538013538038279300 ) ) ;
#12 = CARTESIAN_POINT ( 'NONE',  ( 8.000000000000000000, 2.136530645425331400, 8.281622369470751400 ) ) ;
#13 = EDGE_LOOP ( 'NONE', ( #155, #261, #167, #185 ) ) ;
#14 = EDGE_CURVE ( 'NONE', #30, #114, #278, .T. ) ;
#15 = CIRCLE ( 'NONE', #188, 1.549999999999998300 ) ;
#16 = AXIS2_PLACEMENT_3D ( 'NONE', #266, #330, #26 ) ;
#17 = COLOUR_RGB ( '',0.9372549019607843100, 0.9607843137254902200, 1.000000000000000000 ) ;
#18 = VERTEX_POINT ( 'NONE', #292 ) ;
#19 = DIRECTION ( 'NONE',  ( 0.0000000000000000000, -0.9353205878449268900, 0.3538013538038264300 ) ) ;
#20 = CYLINDRICAL_SURFACE ( 'NONE', #321, 1.549999999999998900 ) ;
#21 =( NAMED_UNIT ( * ) SI_UNIT ( $, .STERADIAN. ) SOLID_ANGLE_UNIT ( ) );
#22 = PRODUCT ( 'CUT-822-05', 'CUT-822-05', '', ( #263 ) ) ;
#23 = DIRECTION ( 'NONE',  ( 0.0000000000000000000, 0.3538013538038264300, 0.9353205878449268900 ) ) ;
#24 = ORIENTED_EDGE ( 'NONE', *, *, #25, .T. ) ;
#25 = EDGE_CURVE ( 'NONE', #146, #69, #127, .T. ) ;
#26 = DIRECTION ( 'NONE',  ( 0.0000000000000000000, 0.0000000000000000000, -1.000000000000000000 ) ) ;
#27 = LINE ( 'NONE', #161, #48 ) ;
#28 =( LENGTH_UNIT ( ) NAMED_UNIT ( * ) SI_UNIT ( .MILLI., .METRE. ) );
#29 = EDGE_CURVE ( 'NONE', #18, #151, #332, .T. ) ;
#30 = VERTEX_POINT ( 'NONE', #320 ) ;
#31 =( GEOMETRIC_REPRESENTATION_CONTEXT ( 3 ) GLOBAL_UNCERTAINTY_ASSIGNED_CONTEXT ( ( #110 ) ) GLOBAL_UNIT_ASSIGNED_CONTEXT ( ( #281, #307, #68 ) ) REPRESENTATION_CONTEXT ( 'NONE', 'WORKASPACE' ) );
#32 = DIRECTION ( 'NONE',  ( -1.000000000000000000, 0.0000000000000000000, 0.0000000000000000000 ) ) ;
#33 = VERTEX_POINT ( 'NONE', #95 ) ;
#34 = EDGE_CURVE ( 'NONE', #30, #335, #124, .T. ) ;
#35 = CARTESIAN_POINT ( 'NONE',  ( 8.000000000000000000, 0.0000000000000000000, 0.0000000000000000000 ) ) ;
#36 = CARTESIAN_POINT ( 'NONE',  ( 8.000000000000000000, 2.136530645425331400, 8.281622369470751400 ) ) ;
#37 = AXIS2_PLACEMENT_3D ( 'NONE', #54, #106, #6 ) ;
#38 = CARTESIAN_POINT ( 'NONE',  ( 1.224646799147363400E-017, 0.0000000000000000000, 0.0000000000000000000 ) ) ;
#39 = VECTOR ( 'NONE', #135, 999.9999999999998900 ) ;
#40 = CARTESIAN_POINT ( 'NONE',  ( 0.0000000000000000000, 3.000000000000142600, 7.955000000000000100 ) ) ;
#41 = EDGE_CURVE ( 'NONE', #114, #84, #294, .T. ) ;
#42 = PLANE ( 'NONE',  #270 ) ;
#43 = DIRECTION ( 'NONE',  ( 0.0000000000000000000, 0.9353205878449263300, -0.3538013538038278200 ) ) ;
#44 = ORIENTED_EDGE ( 'NONE', *, *, #56, .T. ) ;
#45 = ORIENTED_EDGE ( 'NONE', *, *, #70, .T. ) ;
#46 = CARTESIAN_POINT ( 'NONE',  ( 8.000000000000000000, 3.000000000000144300, -0.9458963666369342200 ) ) ;
#47 = EDGE_CURVE ( 'NONE', #335, #84, #194, .T. ) ;
#48 = VECTOR ( 'NONE', #116, 1000.000000000000000 ) ;
#49 = EDGE_CURVE ( 'NONE', #84, #311, #27, .T. ) ;
#50 = DIRECTION ( 'NONE',  ( 0.0000000000000000000, -0.3538013538038278800, -0.9353205878449264400 ) ) ;
#51 = UNCERTAINTY_MEASURE_WITH_UNIT (LENGTH_MEASURE( 1.000000000000000100E-005 ), #28, 'distance_accuracy_value', 'NONE');
#52 = DIRECTION ( 'NONE',  ( 0.0000000000000000000, 0.0000000000000000000, -1.000000000000000000 ) ) ;
#53 = ORIENTED_EDGE ( 'NONE', *, *, #14, .F. ) ;
#54 = CARTESIAN_POINT ( 'NONE',  ( 8.000000000000000000, -2.999999999999859700, 0.9458963666369412100 ) ) ;
#55 = FACE_OUTER_BOUND ( 'NONE', #191, .T. ) ;
#56 = EDGE_CURVE ( 'NONE', #286, #69, #154, .T. ) ;
#57 = ORIENTED_EDGE ( 'NONE', *, *, #47, .T. ) ;
#58 =( NAMED_UNIT ( * ) SI_UNIT ( $, .STERADIAN. ) SOLID_ANGLE_UNIT ( ) );
#59 = VECTOR ( 'NONE', #115, 1000.000000000000000 ) ;
#60 = FILL_AREA_STYLE ('',( #67 ) ) ;
#61 = EDGE_LOOP ( 'NONE', ( #45, #232 ) ) ;
#62 = ORIENTED_EDGE ( 'NONE', *, *, #103, .T. ) ;
#63 = DIRECTION ( 'NONE',  ( 0.0000000000000000000, -1.000000000000000000, -1.948931213803408800E-016 ) ) ;
#64 = CARTESIAN_POINT ( 'NONE',  ( 8.000000000000000000, 3.000000000000142600, 7.955000000000000100 ) ) ;
#65 = EDGE_CURVE ( 'NONE', #33, #246, #134, .T. ) ;
#66 = CARTESIAN_POINT ( 'NONE',  ( 8.000000000000000000, 3.000000000000142600, 7.955000000000000100 ) ) ;
#67 = FILL_AREA_STYLE_COLOUR ( '', #280 ) ;
#68 =( NAMED_UNIT ( * ) SI_UNIT ( $, .STERADIAN. ) SOLID_ANGLE_UNIT ( ) );
#69 = VERTEX_POINT ( 'NONE', #340 ) ;
#70 = EDGE_CURVE ( 'NONE', #286, #334, #15, .T. ) ;
#71 = CARTESIAN_POINT ( 'NONE',  ( 0.0000000000000000000, -2.999999999999857900, -7.955000000000000100 ) ) ;
#72 = LINE ( 'NONE', #108, #205 ) ;
#73 = ORIENTED_EDGE ( 'NONE', *, *, #216, .F. ) ;
#74 = VECTOR ( 'NONE', #218, 1000.000000000000100 ) ;
#75 = EDGE_LOOP ( 'NONE', ( #331, #235, #289, #226, #177, #275 ) ) ;
#76 = DIRECTION ( 'NONE',  ( 0.0000000000000000000, -1.948931213803408800E-016, 1.000000000000000000 ) ) ;
#77 = EDGE_CURVE ( 'NONE', #89, #162, #271, .T. ) ;
#78 = CARTESIAN_POINT ( 'NONE',  ( 8.000000000000000000, -2.136530645425046800, -8.281622369470749600 ) ) ;
#79 = ORIENTED_EDGE ( 'NONE', *, *, #14, .T. ) ;
#80 = CARTESIAN_POINT ( 'NONE',  ( 1.224646799147363400E-017, -1.898202538678397000E-016, 1.549999999999999600 ) ) ;
#81 = CARTESIAN_POINT ( 'NONE',  ( 8.000000000000000000, -2.999999999999857900, -7.955000000000000100 ) ) ;
#82 = SHAPE_DEFINITION_REPRESENTATION ( #93, #182 ) ;
#83 = EDGE_CURVE ( 'NONE', #151, #89, #230, .T. ) ;
#84 = VERTEX_POINT ( 'NONE', #295 ) ;
#85 = ORIENTED_EDGE ( 'NONE', *, *, #83, .F. ) ;
#86 = VECTOR ( 'NONE', #133, 999.9999999999998900 ) ;
#87 = MANIFOLD_SOLID_BREP ( 'Kombinieren1', #211 ) ;
#88 = AXIS2_PLACEMENT_3D ( 'NONE', #339, #249, #312 ) ;
#89 = VERTEX_POINT ( 'NONE', #64 ) ;
#90 = DIRECTION ( 'NONE',  ( 0.0000000000000000000, 0.9353205878449268900, -0.3538013538038264300 ) ) ;
#91 = ORIENTED_EDGE ( 'NONE', *, *, #3, .F. ) ;
#92 = VERTEX_POINT ( 'NONE', #81 ) ;
#93 = PRODUCT_DEFINITION_SHAPE ( 'NONE', 'NONE',  #105 ) ;
#94 = CARTESIAN_POINT ( 'NONE',  ( 8.000000000000000000, 0.0000000000000000000, -1.549999999999998300 ) ) ;
#95 = CARTESIAN_POINT ( 'NONE',  ( 0.0000000000000000000, -2.136530645425046800, -8.281622369470749600 ) ) ;
#96 = DIRECTION ( 'NONE',  ( 0.0000000000000000000, -0.5735764363510438300, -0.8191520442889933500 ) ) ;
#97 = AXIS2_PLACEMENT_3D ( 'NONE', #296, #23, #19 ) ;
#98 = ORIENTED_EDGE ( 'NONE', *, *, #326, .F. ) ;
#99 = DIRECTION ( 'NONE',  ( 1.000000000000000000, 0.0000000000000000000, -0.0000000000000000000 ) ) ;
#100 = FACE_OUTER_BOUND ( 'NONE', #304, .T. ) ;
#101 = CARTESIAN_POINT ( 'NONE',  ( 0.0000000000000000000, -2.136530645425046800, -8.281622369470749600 ) ) ;
#102 = CARTESIAN_POINT ( 'NONE',  ( 8.000000000000000000, 3.000000000000144300, -0.9458963666369342200 ) ) ;
#103 = EDGE_CURVE ( 'NONE', #92, #18, #318, .T. ) ;
#104 = PLANE ( 'NONE',  #166 ) ;
#105 = PRODUCT_DEFINITION ( 'UNKNOWN', '', #121, #178 ) ;
#106 = DIRECTION ( 'NONE',  ( 0.0000000000000000000, 1.000000000000000000, 1.948931213803407500E-016 ) ) ;
#107 = EDGE_CURVE ( 'NONE', #246, #162, #72, .T. ) ;
#108 = CARTESIAN_POINT ( 'NONE',  ( 0.0000000000000000000, 3.000000000000144300, -0.9458963666369342200 ) ) ;
#109 = DIRECTION ( 'NONE',  ( 0.0000000000000000000, 0.8191520442889931300, -0.5735764363510442700 ) ) ;
#110 = UNCERTAINTY_MEASURE_WITH_UNIT (LENGTH_MEASURE( 1.000000000000000100E-005 ), #281, 'distance_accuracy_value', 'NONE');
#111 = ORIENTED_EDGE ( 'NONE', *, *, #25, .F. ) ;
#112 = CARTESIAN_POINT ( 'NONE',  ( 8.000000000000000000, 3.000000000000144300, -0.9458963666369342200 ) ) ;
#113 = VECTOR ( 'NONE', #264, 1000.000000000000000 ) ;
#114 = VERTEX_POINT ( 'NONE', #314 ) ;
#115 = DIRECTION ( 'NONE',  ( -1.000000000000000000, 0.0000000000000000000, 0.0000000000000000000 ) ) ;
#116 = DIRECTION ( 'NONE',  ( 0.0000000000000000000, 1.948931213803407500E-016, -1.000000000000000000 ) ) ;
#117 = FACE_OUTER_BOUND ( 'NONE', #13, .T. ) ;
#118 = EDGE_CURVE ( 'NONE', #92, #311, #120, .T. ) ;
#119 = VECTOR ( 'NONE', #290, 1000.000000000000200 ) ;
#120 = LINE ( 'NONE', #336, #59 ) ;
#121 = PRODUCT_DEFINITION_FORMATION_WITH_SPECIFIED_SOURCE ( 'ANY', '', #22, .NOT_KNOWN. ) ;
#122 = PLANE ( 'NONE',  #337 ) ;
#123 = LINE ( 'NONE', #174, #113 ) ;
#124 = LINE ( 'NONE', #36, #195 ) ;
#125 = EDGE_CURVE ( 'NONE', #18, #33, #298, .T. ) ;
#126 = CARTESIAN_POINT ( 'NONE',  ( 1.224646799147363400E-017, 0.0000000000000000000, 0.0000000000000000000 ) ) ;
#127 = CIRCLE ( 'NONE', #171, 1.549999999999999600 ) ;
#128 = AXIS2_PLACEMENT_3D ( 'NONE', #196, #316, #96 ) ;
#129 = DIRECTION ( 'NONE',  ( -1.000000000000000000, 0.0000000000000000000, 0.0000000000000000000 ) ) ;
#130 = DIRECTION ( 'NONE',  ( -1.000000000000000000, 0.0000000000000000000, 0.0000000000000000000 ) ) ;
#131 = ORIENTED_EDGE ( 'NONE', *, *, #136, .T. ) ;
#132 = EDGE_LOOP ( 'NONE', ( #131, #255, #98, #139 ) ) ;
#133 = DIRECTION ( 'NONE',  ( 0.0000000000000000000, -0.5735764363510442700, -0.8191520442889931300 ) ) ;
#134 = LINE ( 'NONE', #101, #119 ) ;
#135 = DIRECTION ( 'NONE',  ( 0.0000000000000000000, -0.5735764363510442700, -0.8191520442889931300 ) ) ;
#136 = EDGE_CURVE ( 'NONE', #162, #335, #184, .T. ) ;
#137 = CARTESIAN_POINT ( 'NONE',  ( 8.000000000000000000, 2.136530645425331400, 8.281622369470751400 ) ) ;
#138 = LINE ( 'NONE', #247, #282 ) ;
#139 = ORIENTED_EDGE ( 'NONE', *, *, #77, .T. ) ;
#140 = CARTESIAN_POINT ( 'NONE',  ( 0.0000000000000000000, 0.0000000000000000000, 0.0000000000000000000 ) ) ;
#141 = PRODUCT_RELATED_PRODUCT_CATEGORY ( 'part', '', ( #22 ) ) ;
#142 = EDGE_LOOP ( 'NONE', ( #145, #111 ) ) ;
#143 = SURFACE_STYLE_USAGE ( .BOTH. , #224 ) ;
#144 = PLANE ( 'NONE',  #128 ) ;
#145 = ORIENTED_EDGE ( 'NONE', *, *, #327, .F. ) ;
#146 = VERTEX_POINT ( 'NONE', #80 ) ;
#147 =( NAMED_UNIT ( * ) PLANE_ANGLE_UNIT ( ) SI_UNIT ( $, .RADIAN. ) );
#148 = CARTESIAN_POINT ( 'NONE',  ( 8.000000000000000000, -1.898202538678395700E-016, 1.549999999999998300 ) ) ;
#149 = VECTOR ( 'NONE', #11, 1000.000000000000100 ) ;
#150 = FILL_AREA_STYLE_COLOUR ( '', #17 ) ;
#151 = VERTEX_POINT ( 'NONE', #112 ) ;
#152 = ORIENTED_EDGE ( 'NONE', *, *, #41, .F. ) ;
#153 = FACE_OUTER_BOUND ( 'NONE', #214, .T. ) ;
#154 = LINE ( 'NONE', #283, #206 ) ;
#155 = ORIENTED_EDGE ( 'NONE', *, *, #245, .T. ) ;
#156 = EDGE_CURVE ( 'NONE', #151, #246, #219, .T. ) ;
#157 = CARTESIAN_POINT ( 'NONE',  ( 0.0000000000000000000, 2.136530645425331400, 8.281622369470751400 ) ) ;
#158 = EDGE_CURVE ( 'NONE', #334, #146, #123, .T. ) ;
#159 =( NAMED_UNIT ( * ) PLANE_ANGLE_UNIT ( ) SI_UNIT ( $, .RADIAN. ) );
#160 = ADVANCED_FACE ( 'NONE', ( #100 ), #288, .F. ) ;
#161 = CARTESIAN_POINT ( 'NONE',  ( 0.0000000000000000000, -2.999999999999859700, 0.9458963666369412100 ) ) ;
#162 = VERTEX_POINT ( 'NONE', #328 ) ;
#163 = CARTESIAN_POINT ( 'NONE',  ( 8.000000000000000000, 0.0000000000000000000, 0.0000000000000000000 ) ) ;
#164 = PLANE ( 'NONE',  #97 ) ;
#165 = VECTOR ( 'NONE', #90, 1000.000000000000000 ) ;
#166 = AXIS2_PLACEMENT_3D ( 'NONE', #198, #99, #299 ) ;
#167 = ORIENTED_EDGE ( 'NONE', *, *, #103, .F. ) ;
#168 = DIRECTION ( 'NONE',  ( -1.000000000000000000, 0.0000000000000000000, 0.0000000000000000000 ) ) ;
#169 = FACE_OUTER_BOUND ( 'NONE', #253, .T. ) ;
#170 = ORIENTED_EDGE ( 'NONE', *, *, #156, .T. ) ;
#171 = AXIS2_PLACEMENT_3D ( 'NONE', #38, #215, #341 ) ;
#172 = VECTOR ( 'NONE', #222, 1000.000000000000000 ) ;
#173 = FACE_OUTER_BOUND ( 'NONE', #75, .T. ) ;
#174 = CARTESIAN_POINT ( 'NONE',  ( 0.0000000000000000000, -1.898202538678396000E-016, 1.549999999999998900 ) ) ;
#175 = CARTESIAN_POINT ( 'NONE',  ( 8.000000000000000000, -2.136530645425046800, -8.281622369470749600 ) ) ;
#176 = ADVANCED_FACE ( 'NONE', ( #306 ), #20, .F. ) ;
#177 = ORIENTED_EDGE ( 'NONE', *, *, #107, .F. ) ;
#178 = PRODUCT_DEFINITION_CONTEXT ( 'detailed design', #204, 'design' ) ;
#179 = PRESENTATION_STYLE_ASSIGNMENT (( #277 ) ) ;
#180 = CARTESIAN_POINT ( 'NONE',  ( 0.0000000000000000000, 0.0000000000000000000, 0.0000000000000000000 ) ) ;
#181 = DIRECTION ( 'NONE',  ( -1.000000000000000000, 0.0000000000000000000, 0.0000000000000000000 ) ) ;
#182 = ADVANCED_BREP_SHAPE_REPRESENTATION ( 'CUT-822-05', ( #87, #88 ), #284 ) ;
#183 = DIRECTION ( 'NONE',  ( -1.000000000000000000, 0.0000000000000000000, 0.0000000000000000000 ) ) ;
#184 = LINE ( 'NONE', #40, #74 ) ;
#185 = ORIENTED_EDGE ( 'NONE', *, *, #118, .T. ) ;
#186 = LINE ( 'NONE', #71, #165 ) ;
#187 = LINE ( 'NONE', #197, #149 ) ;
#188 = AXIS2_PLACEMENT_3D ( 'NONE', #35, #181, #1 ) ;
#189 = VECTOR ( 'NONE', #342, 1000.000000000000200 ) ;
#190 = FACE_BOUND ( 'NONE', #61, .T. ) ;
#191 = EDGE_LOOP ( 'NONE', ( #62, #234, #323, #9, #79, #209 ) ) ;
#192 = ORIENTED_EDGE ( 'NONE', *, *, #49, .T. ) ;
#193 = APPLICATION_CONTEXT ( 'automotive_design' ) ;
#194 = LINE ( 'NONE', #239, #86 ) ;
#195 = VECTOR ( 'NONE', #168, 1000.000000000000000 ) ;
#196 = CARTESIAN_POINT ( 'NONE',  ( 8.000000000000000000, -2.136530645425046800, -8.281622369470749600 ) ) ;
#197 = CARTESIAN_POINT ( 'NONE',  ( 8.000000000000000000, 3.000000000000142600, 7.955000000000000100 ) ) ;
#198 = CARTESIAN_POINT ( 'NONE',  ( 0.0000000000000000000, 0.0000000000000000000, 0.0000000000000000000 ) ) ;
#199 = AXIS2_PLACEMENT_3D ( 'NONE', #12, #109, #10 ) ;
#200 = SURFACE_STYLE_FILL_AREA ( #269 ) ;
#201 = ADVANCED_FACE ( 'NONE', ( #5 ), #122, .F. ) ;
#202 = CARTESIAN_POINT ( 'NONE',  ( 8.000000000000000000, 3.000000000000142600, 7.955000000000000100 ) ) ;
#203 = EDGE_LOOP ( 'NONE', ( #73, #315, #24, #273 ) ) ;
#204 = APPLICATION_CONTEXT ( 'automotive_design' ) ;
#205 = VECTOR ( 'NONE', #221, 1000.000000000000000 ) ;
#206 = VECTOR ( 'NONE', #229, 1000.000000000000000 ) ;
#207 = VECTOR ( 'NONE', #130, 1000.000000000000000 ) ;
#208 = STYLED_ITEM ( 'NONE', ( #243 ), #87 ) ;
#209 = ORIENTED_EDGE ( 'NONE', *, *, #3, .T. ) ;
#210 = ADVANCED_FACE ( 'NONE', ( #248 ), #233, .F. ) ;
#211 = CLOSED_SHELL ( 'NONE', ( #176, #237, #223, #227, #252, #201, #250, #210, #257, #160 ) ) ;
#212 = VECTOR ( 'NONE', #333, 1000.000000000000000 ) ;
#213 = DIRECTION ( 'NONE',  ( 0.0000000000000000000, 0.0000000000000000000, -1.000000000000000000 ) ) ;
#214 = EDGE_LOOP ( 'NONE', ( #57, #152, #53, #4 ) ) ;
#215 = DIRECTION ( 'NONE',  ( -1.000000000000000000, 0.0000000000000000000, 0.0000000000000000000 ) ) ;
#216 = EDGE_CURVE ( 'NONE', #334, #286, #302, .T. ) ;
#217 = ORIENTED_EDGE ( 'NONE', *, *, #29, .F. ) ;
#218 = DIRECTION ( 'NONE',  ( 0.0000000000000000000, -0.9353205878449263300, 0.3538013538038279300 ) ) ;
#219 = LINE ( 'NONE', #102, #172 ) ;
#220 = ORIENTED_EDGE ( 'NONE', *, *, #156, .F. ) ;
#221 = DIRECTION ( 'NONE',  ( 0.0000000000000000000, -1.948931213803408800E-016, 1.000000000000000000 ) ) ;
#222 = DIRECTION ( 'NONE',  ( -1.000000000000000000, 0.0000000000000000000, 0.0000000000000000000 ) ) ;
#223 = ADVANCED_FACE ( 'NONE', ( #117 ), #164, .F. ) ;
#224 = SURFACE_SIDE_STYLE ('',( #256 ) ) ;
#225 = APPLICATION_PROTOCOL_DEFINITION ( 'draft international standard', 'automotive_design', 1998, #193 ) ;
#226 = ORIENTED_EDGE ( 'NONE', *, *, #136, .F. ) ;
#227 = ADVANCED_FACE ( 'NONE', ( #2 ), #144, .F. ) ;
#228 = PRESENTATION_LAYER_ASSIGNMENT (  '', '', ( #208 ) ) ;
#229 = DIRECTION ( 'NONE',  ( -1.000000000000000000, 0.0000000000000000000, 0.0000000000000000000 ) ) ;
#230 = LINE ( 'NONE', #46, #310 ) ;
#231 = ORIENTED_EDGE ( 'NONE', *, *, #65, .T. ) ;
#232 = ORIENTED_EDGE ( 'NONE', *, *, #216, .T. ) ;
#233 = PLANE ( 'NONE',  #37 ) ;
#234 = ORIENTED_EDGE ( 'NONE', *, *, #29, .T. ) ;
#235 = ORIENTED_EDGE ( 'NONE', *, *, #49, .F. ) ;
#236 = CARTESIAN_POINT ( 'NONE',  ( 0.0000000000000000000, -2.999999999999857900, -7.955000000000000100 ) ) ;
#237 = ADVANCED_FACE ( 'NONE', ( #173, #267 ), #104, .F. ) ;
#238 = AXIS2_PLACEMENT_3D ( 'NONE', #8, #63, #276 ) ;
#239 = CARTESIAN_POINT ( 'NONE',  ( 0.0000000000000000000, 2.136530645425331400, 8.281622369470751400 ) ) ;
#240 = EDGE_LOOP ( 'NONE', ( #231, #220, #217, #265 ) ) ;
#241 = DIRECTION ( 'NONE',  ( 0.0000000000000000000, 1.948931213803407500E-016, -1.000000000000000000 ) ) ;
#242 = MECHANICAL_DESIGN_GEOMETRIC_PRESENTATION_REPRESENTATION (  '', ( #208 ), #258 ) ;
#243 = PRESENTATION_STYLE_ASSIGNMENT (( #143 ) ) ;
#244 =( LENGTH_UNIT ( ) NAMED_UNIT ( * ) SI_UNIT ( .MILLI., .METRE. ) );
#245 = EDGE_CURVE ( 'NONE', #311, #33, #186, .T. ) ;
#246 = VERTEX_POINT ( 'NONE', #319 ) ;
#247 = CARTESIAN_POINT ( 'NONE',  ( 8.000000000000000000, -2.999999999999859700, 0.9458963666369412100 ) ) ;
#248 = FACE_OUTER_BOUND ( 'NONE', #268, .T. ) ;
#249 = DIRECTION ( 'NONE',  ( 0.0000000000000000000, 0.0000000000000000000, 1.000000000000000000 ) ) ;
#250 = ADVANCED_FACE ( 'NONE', ( #153 ), #260, .F. ) ;
#251 = AXIS2_PLACEMENT_3D ( 'NONE', #126, #129, #254 ) ;
#252 = ADVANCED_FACE ( 'NONE', ( #169 ), #317, .F. ) ;
#253 = EDGE_LOOP ( 'NONE', ( #322, #285, #85, #170 ) ) ;
#254 = DIRECTION ( 'NONE',  ( 0.0000000000000000000, 0.0000000000000000000, -1.000000000000000000 ) ) ;
#255 = ORIENTED_EDGE ( 'NONE', *, *, #34, .F. ) ;
#256 = SURFACE_STYLE_FILL_AREA ( #60 ) ;
#257 = ADVANCED_FACE ( 'NONE', ( #190, #55 ), #42, .T. ) ;
#258 =( GEOMETRIC_REPRESENTATION_CONTEXT ( 3 ) GLOBAL_UNCERTAINTY_ASSIGNED_CONTEXT ( ( #51 ) ) GLOBAL_UNIT_ASSIGNED_CONTEXT ( ( #28, #159, #21 ) ) REPRESENTATION_CONTEXT ( 'NONE', 'WORKASPACE' ) );
#259 = UNCERTAINTY_MEASURE_WITH_UNIT (LENGTH_MEASURE( 1.000000000000000100E-005 ), #244, 'distance_accuracy_value', 'NONE');
#260 = PLANE ( 'NONE',  #199 ) ;
#261 = ORIENTED_EDGE ( 'NONE', *, *, #125, .F. ) ;
#262 = SURFACE_SIDE_STYLE ('',( #200 ) ) ;
#263 = PRODUCT_CONTEXT ( 'NONE', #193, 'mechanical' ) ;
#264 = DIRECTION ( 'NONE',  ( -1.000000000000000000, 0.0000000000000000000, 0.0000000000000000000 ) ) ;
#265 = ORIENTED_EDGE ( 'NONE', *, *, #125, .T. ) ;
#266 = CARTESIAN_POINT ( 'NONE',  ( 8.000000000000000000, 0.0000000000000000000, 0.0000000000000000000 ) ) ;
#267 = FACE_BOUND ( 'NONE', #142, .T. ) ;
#268 = EDGE_LOOP ( 'NONE', ( #192, #291, #91, #279 ) ) ;
#269 = FILL_AREA_STYLE ('',( #150 ) ) ;
#270 = AXIS2_PLACEMENT_3D ( 'NONE', #163, #274, #301 ) ;
#271 = LINE ( 'NONE', #66, #324 ) ;
#272 = VECTOR ( 'NONE', #183, 1000.000000000000000 ) ;
#273 = ORIENTED_EDGE ( 'NONE', *, *, #56, .F. ) ;
#274 = DIRECTION ( 'NONE',  ( 1.000000000000000000, 0.0000000000000000000, -0.0000000000000000000 ) ) ;
#275 = ORIENTED_EDGE ( 'NONE', *, *, #65, .F. ) ;
#276 = DIRECTION ( 'NONE',  ( 0.0000000000000000000, 1.948931213803408800E-016, -1.000000000000000000 ) ) ;
#277 = SURFACE_STYLE_USAGE ( .BOTH. , #262 ) ;
#278 = LINE ( 'NONE', #137, #39 ) ;
#279 = ORIENTED_EDGE ( 'NONE', *, *, #41, .T. ) ;
#280 = COLOUR_RGB ( '',0.9372549019607843100, 0.9607843137254902200, 1.000000000000000000 ) ;
#281 =( LENGTH_UNIT ( ) NAMED_UNIT ( * ) SI_UNIT ( .MILLI., .METRE. ) );
#282 = VECTOR ( 'NONE', #241, 1000.000000000000000 ) ;
#283 = CARTESIAN_POINT ( 'NONE',  ( 0.0000000000000000000, 0.0000000000000000000, -1.549999999999998900 ) ) ;
#284 =( GEOMETRIC_REPRESENTATION_CONTEXT ( 3 ) GLOBAL_UNCERTAINTY_ASSIGNED_CONTEXT ( ( #259 ) ) GLOBAL_UNIT_ASSIGNED_CONTEXT ( ( #244, #147, #58 ) ) REPRESENTATION_CONTEXT ( 'NONE', 'WORKASPACE' ) );
#285 = ORIENTED_EDGE ( 'NONE', *, *, #77, .F. ) ;
#286 = VERTEX_POINT ( 'NONE', #94 ) ;
#287 = CARTESIAN_POINT ( 'NONE',  ( 8.000000000000000000, -2.999999999999857900, -7.955000000000000100 ) ) ;
#288 = CYLINDRICAL_SURFACE ( 'NONE', #303, 1.549999999999998900 ) ;
#289 = ORIENTED_EDGE ( 'NONE', *, *, #47, .F. ) ;
#290 = DIRECTION ( 'NONE',  ( 0.0000000000000000000, 0.5735764363510438300, 0.8191520442889933500 ) ) ;
#291 = ORIENTED_EDGE ( 'NONE', *, *, #118, .F. ) ;
#292 = CARTESIAN_POINT ( 'NONE',  ( 8.000000000000000000, -2.136530645425046800, -8.281622369470749600 ) ) ;
#293 = ORIENTED_EDGE ( 'NONE', *, *, #70, .F. ) ;
#294 = LINE ( 'NONE', #305, #272 ) ;
#295 = CARTESIAN_POINT ( 'NONE',  ( 0.0000000000000000000, -2.999999999999859700, 0.9458963666369412100 ) ) ;
#296 = CARTESIAN_POINT ( 'NONE',  ( 8.000000000000000000, -2.999999999999857900, -7.955000000000000100 ) ) ;
#297 = APPLICATION_PROTOCOL_DEFINITION ( 'draft international standard', 'automotive_design', 1998, #204 ) ;
#298 = LINE ( 'NONE', #175, #207 ) ;
#299 = DIRECTION ( 'NONE',  ( 0.0000000000000000000, 0.0000000000000000000, 1.000000000000000000 ) ) ;
#300 = ORIENTED_EDGE ( 'NONE', *, *, #327, .T. ) ;
#301 = DIRECTION ( 'NONE',  ( 0.0000000000000000000, 0.0000000000000000000, 1.000000000000000000 ) ) ;
#302 = CIRCLE ( 'NONE', #16, 1.549999999999998300 ) ;
#303 = AXIS2_PLACEMENT_3D ( 'NONE', #140, #338, #213 ) ;
#304 = EDGE_LOOP ( 'NONE', ( #308, #293, #44, #300 ) ) ;
#305 = CARTESIAN_POINT ( 'NONE',  ( 8.000000000000000000, -2.999999999999859700, 0.9458963666369412100 ) ) ;
#306 = FACE_OUTER_BOUND ( 'NONE', #203, .T. ) ;
#307 =( NAMED_UNIT ( * ) PLANE_ANGLE_UNIT ( ) SI_UNIT ( $, .RADIAN. ) );
#308 = ORIENTED_EDGE ( 'NONE', *, *, #158, .F. ) ;
#309 = DIRECTION ( 'NONE',  ( -1.000000000000000000, 0.0000000000000000000, 0.0000000000000000000 ) ) ;
#310 = VECTOR ( 'NONE', #76, 1000.000000000000000 ) ;
#311 = VERTEX_POINT ( 'NONE', #236 ) ;
#312 = DIRECTION ( 'NONE',  ( 1.000000000000000000, 0.0000000000000000000, 0.0000000000000000000 ) ) ;
#313 = STYLED_ITEM ( 'NONE', ( #179 ), #182 ) ;
#314 = CARTESIAN_POINT ( 'NONE',  ( 8.000000000000000000, -2.999999999999859700, 0.9458963666369412100 ) ) ;
#315 = ORIENTED_EDGE ( 'NONE', *, *, #158, .T. ) ;
#316 = DIRECTION ( 'NONE',  ( 0.0000000000000000000, -0.8191520442889934600, 0.5735764363510439400 ) ) ;
#317 = PLANE ( 'NONE',  #238 ) ;
#318 = LINE ( 'NONE', #287, #212 ) ;
#319 = CARTESIAN_POINT ( 'NONE',  ( 0.0000000000000000000, 3.000000000000144300, -0.9458963666369342200 ) ) ;
#320 = CARTESIAN_POINT ( 'NONE',  ( 8.000000000000000000, 2.136530645425331400, 8.281622369470751400 ) ) ;
#321 = AXIS2_PLACEMENT_3D ( 'NONE', #180, #309, #52 ) ;
#322 = ORIENTED_EDGE ( 'NONE', *, *, #107, .T. ) ;
#323 = ORIENTED_EDGE ( 'NONE', *, *, #83, .T. ) ;
#324 = VECTOR ( 'NONE', #32, 1000.000000000000000 ) ;
#325 = CIRCLE ( 'NONE', #251, 1.549999999999999600 ) ;
#326 = EDGE_CURVE ( 'NONE', #89, #30, #187, .T. ) ;
#327 = EDGE_CURVE ( 'NONE', #69, #146, #325, .T. ) ;
#328 = CARTESIAN_POINT ( 'NONE',  ( 0.0000000000000000000, 3.000000000000142600, 7.955000000000000100 ) ) ;
#329 = PRESENTATION_LAYER_ASSIGNMENT (  '', '', ( #313 ) ) ;
#330 = DIRECTION ( 'NONE',  ( -1.000000000000000000, 0.0000000000000000000, 0.0000000000000000000 ) ) ;
#331 = ORIENTED_EDGE ( 'NONE', *, *, #245, .F. ) ;
#332 = LINE ( 'NONE', #78, #189 ) ;
#333 = DIRECTION ( 'NONE',  ( 0.0000000000000000000, 0.9353205878449268900, -0.3538013538038264300 ) ) ;
#334 = VERTEX_POINT ( 'NONE', #148 ) ;
#335 = VERTEX_POINT ( 'NONE', #157 ) ;
#336 = CARTESIAN_POINT ( 'NONE',  ( 8.000000000000000000, -2.999999999999857900, -7.955000000000000100 ) ) ;
#337 = AXIS2_PLACEMENT_3D ( 'NONE', #202, #50, #43 ) ;
#338 = DIRECTION ( 'NONE',  ( -1.000000000000000000, 0.0000000000000000000, 0.0000000000000000000 ) ) ;
#339 = CARTESIAN_POINT ( 'NONE',  ( 0.0000000000000000000, 0.0000000000000000000, 0.0000000000000000000 ) ) ;
#340 = CARTESIAN_POINT ( 'NONE',  ( 1.224646799147363400E-017, 0.0000000000000000000, -1.549999999999999600 ) ) ;
#341 = DIRECTION ( 'NONE',  ( 0.0000000000000000000, 0.0000000000000000000, -1.000000000000000000 ) ) ;
#342 = DIRECTION ( 'NONE',  ( 0.0000000000000000000, 0.5735764363510438300, 0.8191520442889933500 ) ) ;
ENDSEC;
END-ISO-10303-21;
